>
 >
The Invasion From Within

The Invasion From Within Guitar Tabs

Tsunami Bomb - The Invasion From Within chords, tabs, tablatures, lyrics

Guitar lessons | Add/correct | Request | Top 50 tabs Artists:  A B C D E F G H I J K L M N O P Q R S T U V W X Y Z 0-9

The Invasion From Within Guitar Tabs – Tsunami Bomb

CD, Sheet music, Poster

Do you like The Invasion From Within? Share with your friends now
Bass TabsTabs
------------------------------------------------------------------------------- 
------------------------------------------------------------------------------- 

P.M. End P.M. 
E---|--------------------------------------|---------------------------- 
B---|--------------------------------------|---------------------------- 
G---|--------------------------------------|--------7--8--8--10--8------ 
D---|--5--5-----5--5-----5--5-----5--------|-----5--7--8--8--10--8------ 
A---|--5--5-----5--5-----5--5-----5--x--8--|-----5--5--6--6--8---6------ 
E---|--3--3-----3--3-----3--3-----3--------|-----3---------------------- 

P.M.---> 
E---------|---------------------------------------|--------------------- 
B---------|---------------------------------------|--------------------- 
G---------|-----------7--------8--------10-----8--|-----------7--------- 
D---x--4--|--5--------7--x--4--8--x--4--10-----8--|--5--------7--x------ 
A---------|--5--x--4--5--------6--------8------6--|--5--x--4--5--------- 
E---------|--3------------------------------------|--3------------------ 

End P.M. P.M. 
E----------------------|--------------|--------------------------------- 
B----------------------|--------------|--------------------------------- 
G------8--------10--8--|--------7--8--|--------------------------------- 
D---4--8--x--4--10--8--|-----5--7--8--|--5--5-----5--5-----5--5--------- 
A------6--------8---6--|-----5--5--6--|--5--5-----5--5-----5--5--------- 
E----------------------|-----3--------|--3--3-----3--3-----3--3--------- 

End P.M. P.M.---> 
E------------|------------------------------|--------------------------- 
B------------|------------------------------|--------------------------- 
G------------|--------7--8--8--10--8--------|-----------7--------8------ 
D---5--------|-----5--7--8--8--10--8--x--4--|--5--------7--x--4--8------ 
A---5--x--8--|-----5--5--6--6--8---6--------|--5--x--4--5--------6------ 
E---3--------|-----3------------------------|--3------------------------ 

End P.M. 
E-------------------|------------------------------------|-------------- 
B-------------------|------------------------------------|-------------- 
G---------10-----8--|-----------7--------8--------10--8--|--------7----- 
D---x--4--10-----8--|--5--------7--x--4--8--x--4--10--8--|-----5--7----- 
A---------8------6--|--5--x--4--5--------6--------8---6--|-----5--5----- 
E-------------------|--3---------------------------------|-----3-------- 

P.M. End P.M. 
E----------------------|--|--------------------------------------|------ 
B----------------------|--|--------------------------------------|------ 
G---8--8--10--8--------|--|--------------------------------------|------ 
D---8--8--10--8--x--2--|--|--5--5-----5--5-----5--5-----5--------|------ 
A---6--6--8---6--------|--|--5--5-----5--5-----5--5-----5--x--8--|------ 
E----------------------|--|--3--3-----3--3-----3--3-----3--------|------ 

P.M.---> 
E-------------------------------|--------------------------------------- 
B-------------------------------|--------------------------------------- 
G---------7--8--8--10--8--------|-----------7--------8--------10-------- 
D------5--7--8--8--10--8--x--4--|--5--------7--x--4--8--x--4--10-------- 
A------5--5--6--6--8---6--------|--5--x--4--5--------6--------8--------- 
E------3------------------------|--3------------------------------------ 

End P.M. 
E------|------------------------------------|--------------------------- 
B------|------------------------------------|--------------------------- 
G---8--|-----------7--------8--------10--8--|--------7--8--8--10--8----- 
D---8--|--5--------7--x--4--8--x--4--10--8--|-----5--7--8--8--10--8----- 
A---6--|--5--x--4--5--------6--------8---6--|-----5--5--6--6--8---6----- 
E------|--3---------------------------------|-----3--------------------- 

P.M. End P.M. 
E---------|--|--------------------------------------|------------------- 
B---------|--|--------------------------------------|------------------- 
G---------|--|--------------------------------------|--------7--8--8---- 
D---x--2--|--|--5--5-----5--5-----5--5-----5--------|-----5--7--8--8---- 
A---------|--|--5--5-----5--5-----5--5-----5--x--8--|-----5--5--6--6---- 
E---------|--|--3--3-----3--3-----3--3-----3--------|-----3------------- 

P.M.---> 
E----------------|---------------------------------------|-------------- 
B----------------|---------------------------------------|-------------- 
G---10--8--------|-----------7--------8--------10-----8--|-------------- 
D---10--8--x--4--|--5--------7--x--4--8--x--4--10-----8--|--5----------- 
A---8---6--------|--5--x--4--5--------6--------8------6--|--5--x--4----- 
E----------------|--3------------------------------------|--3----------- 

End P.M. 
E----------------------------|------------------------------|--|-------- 
B----------------------------|------------------------------|--|-------- 
G---7--------8--------10--8--|--------7--8--8--10--8--------|--|-------- 
D---7--x--4--8--x--4--10--8--|-----5--7--8--8--10--8--x--2--|--|-------- 
A---5--------6--------8---6--|-----5--5--6--6--8---6--------|--|-------- 
E----------------------------|-----3------------------------|--|-------- 

P.M. End P.M. 
E---------------------------------------|------------------------------- 
B---------------------------------------|------------------------------- 
G---------------------------------------|--------7--8--8--10--8--------- 
D---5--5-----5--5-----5--5-----5--------|-----5--7--8--8--10--8--x------ 
A---5--5-----5--5-----5--5-----5--x--8--|-----5--5--6--6--8---6--------- 
E---3--3-----3--3-----3--3-----3--------|-----3------------------------- 

P.M.---> 
E------|---------------------------------------|------------------------ 
B------|---------------------------------------|------------------------ 
G------|-----------7--------8--------10-----8--|-----------7------------ 
D---4--|--5--------7--x--4--8--x--4--10-----8--|--5--------7--x--4------ 
A------|--5--x--4--5--------6--------8------6--|--5--x--4--5------------ 
E------|--3------------------------------------|--3--------------------- 

End P.M. 
E-------------------|------------------------------|-------------------- 
B-------------------|------------------------------|-------------------- 
G---8--------10--8--|--------7--8--8--10--8--------|--8--10--8---------- 
D---8--x--4--10--8--|-----5--7--8--8--10--8--x--2--|--8--10--8--x--2---- 
A---6--------8---6--|-----5--5--6--6--8---6--------|--6--8---6---------- 
E-------------------|-----3------------------------|-------------------- 

PM. -----------------> End P.M. 
E---|---------------------------------------------------------|--------- 
B---|---------------------------------------------------------|--------- 
G---|-----------------7--7--7--7-----8--8--8--8--10--8--------|--------- 
D---|-----5--5--5--5--7--7--7--7-----8--8--8--8--10--8--x--3--|--------- 
A---|-----5--5--5--5--5--5--5--5-----6--6--6--6--8---6--------|--------- 
E---|-----3--3--3--3------------------------------------------|--------- 

E----------------------------|------------------------------------------ 
B----------------------------|------------------------------------------ 
G------7--8--8--10--8--------|--7-----7--7--7--7--7-----7--5--3--0------ 
D---5--7--8--8--10--8--x--4--|--7-----7--7--7--7--7-----7--5--3--0------ 
A---5--5--6--6--8---6--------|--5-----5--5--5--5--5-----5--3--1--0------ 
E---3------------------------|------------------------------------------ 

P.M.--> 
E------|---------------------------------------------------------------- 
B------|---------------------------------------------------------------- 
G------|---------------------------------------------------------------- 
D---5--|--3--3---------------------------------------------------------- 
A---5--|--3--3---------------------------------------------------------- 
E---3--|--1--1---------------------------------------------------------- 

-------------------------------------------------------------------------------





Comments


Popular Tsunami Bomb tabs & chords
No One's Looking Bass Tabs
Russian Roulette 1 Bass Tabs
...Not Forever 1 Tabs
20 Going On.. Tabs
20s Going On Tabs
3 Days And 1000 Nights 1 Tabs
5150 1 Tabs
Headlights On A Handgrenade Tabs
Lemonade 2 Tabs
Take The Reins 4 Tabs


Song lyrics



↑ Back to top | Tablatures and chords are parodies/interpretations of the original songs. You may use it for private study, scholarship, research or language learning purposes only
© 2014 AZChords.com Contact us | Privacy policy | DMCA | Add/correct tabs | Request tabs | Top 50 tabs