» » »

...Not Forever Tabs (ver.3)

Artists:  A B C D E F G H I J K L M N O P Q R S T U V W X Y Z # 

...Not Forever Tabs (ver.3)

Tsunami Bomb
Rating:
0/5 (0 votes)

Hard to play? Try these video lessons and learn fast.
                Tsunami Bomb
Not Forever



INTRO

|-------------------------------------------------------------------------|
|-------------------------------------------------------------------------|
|-----9-----10----------------------------4-----4---4-5-5-5-7-7-7-4/5\4---|
|-7-7---7-7----7-7-10-10-10-9-9-9-7-7-5-5---5-5---5---------------------5-| X 4
|-------------------------------------------------------------------------|   
|-------------------------------------------------------------------------|   
  . . . . .  . . .  .  .  . . . . . . . . . . . . . . . . . . . .


|--------------------------------------------------------------|
|--------------------------------------------------------------|
|-----9-----10----------------------------4-----4---4-5-5-5-4:-|
|-7-7---7-7----7-7-10-10-10-9-9-9-7-7-5-5---5-5---5---5-5-5-4:-|     
|-----------------------------------------------------3-3-3-2:-|   
|--------------------------------------------------------------|
  . . . . .  . . .  .  .  . . . . . . . . . . . . . .

 

RIFF 1

|-------------------------------| 
|-------------------------------| 
|-10-10-10-9-9-9----------------| 
|-10-10-10-9-9-9-7-777777777777-| X 5 
|--8--8--8-7-7-7-7-777777777777-| 
|----------------5-555555555555-|
                   ............


|-------------------------------| 
|-------------------------------| 
|-10-10-10-9-9-9-5-555555555555-| 
|-10-10-10-9-9-9-5-555555555555-| 
|--8--8--8-7-7-7-3—333333333333-| 
|-------------------------------| 



CHORUS 1 

|----------------------------------------------------------------| 
|----------------------------------------------------------------| 
|-----------------7-7-7-7-7-7-7-7-10-10-10-9-9-9-5-5-5-5-5-5-5-5-| 
|-5-5-5-5-5-5-5-5-7-7-7-7-7-7-7-7-10-10-10-9-9-9-5-5-5-5-5-5-5-5-| 
|-5-5-5-5-5-5-5-5-5-5-5-5-5-5-5-5--8--8--8-7-7-7-3-3-3-3-3-3-3-3-| 
|-3-3-3-3-3-3-3-3------------------------------------------------|

|-----------------------------------------------------------| 
|-----------------------------------------------------------|
|-----------------7-7-7-7-7-7-7-7-10-10-10-9-9-9------------| 
|-5-5-5-5-5-5-5-5-7-7-7-7-7-7-7-7-10-10-10-9-9-9-7-77777777-| 
|-5-5-5-5-5-5-5-5-5-5-5-5-5-5-5-5--8--8--8-7-7-7-7-77777777-| 
|-3-3-3-3-3-3-3-3--------------------------------5-55555555-|
                                                   ........

CHORUS 2

|----------------------------------------------------------------| 
|----------------------------------------------------------------| 
|-----------------7-7-7-7-7-7-7-7-10-10-10-9-9-9-5-5-5-5-5-5-5-5-| 
|-5-5-5-5-5-5-5-5-7-7-7-7-7-7-7-7-10-10-10-9-9-9-5-5-5-5-5-5-5-5-| 
|-5-5-5-5-5-5-5-5-5-5-5-5-5-5-5-5--8--8--8-7-7-7-3-3-3-3-3-3-3-3-| 
|-3-3-3-3-3-3-3-3------------------------------------------------|


|-----------------------------------------------| 
|-----------------------------------------------| 
|-----------------7-7-7-7-7-7-7-7-10-9-10-9-7-5-| 
|-5-5-5-5-5-5-5-5-7-7-7-7-7-7-7-7-10-9-10-9—7-5-| 
|-5-5-5-5-5-5-5-5-5-5-5-5-5-5-5-5--8-7--8-7-5-3-| 
|-3-3-3-3-3-3-3-3-------------------------------| 



BREAK

|-----------------------------------------| 
|-----------------------------------------| 
|-7-7-7-7---------------------10-10-10-10-| 
|-7-7-7-7-7-7-7-7-10-10-10-10-10-10-10-10-| X4
|-5-5-5-5-7-7-7-7-10-10-10-10--8--8--8--8-| 
|---------5-5-5-5--8--8--8--8-------------| 


|----| 
|----| 
|-7:-| 
|-7:-| 
|-5:-| 
|----|



INTERLUDE

|---------------------|----------------|
|---------------------|----------------|
|---------------------|----------------|
|-------5-------------|-------5---5-7\-|
|-5-7-8---8-7-8-7-----|-5-7-8---8------|
|-----------------6-5-|----------------|

|---------------------------------------------|
|---------------------------------------------|
|---------------------------------------------|
|-7-7-7-7-7-7-7-7-7-7-7-7-7-7-7-7-7-7-7-7-7-7-|
|-7-7-7-7-7-7-7-7-7---------------------------|
|-5-5-5-5-5-5-5-5-5---------------------------|
    . . . . . . . .

|------------------|-------|--------------------------|
|------------------|-------|--------------------------|
|-10-10-10-9-9-9---|-------|-10-9-10-12-10------------|
|-10-10-10-9-9-9-7-|-slide-|-10-9-10-12-10-7-77777777-|
|--8--8--8-7-7-7-7-|-------|--8-7--8-10--8-7-77777777-|
|----------------5-|-------|---------------5-55555555-|
                                             ........



CHORUS 3

|----------------------------------------------------------------| 
|----------------------------------------------------------------| 
|-----------------7-7-7-7-7-7-7-7-10-10-10-9-9-9-5-5-5-5-5-5-5-5-| 
|-5-5-5-5-5-5-5-5-7-7-7-7-7-7-7-7-10-10-10-9-9-9-5-5-5-5-5-5-5-5-| X 3 
|-5-5-5-5-5-5-5-5-5-5-5-5-5-5-5-5--8--8--8-7-7-7-3-3-3-3-3-3-3-3-| 
|-3-3-3-3-3-3-3-3------------------------------------------------|



ENDING

|---------------------------------------------------|
|---------------------------------------------------|
|-----------------7-7-7-7-7-7-7-7-10-10-10-9-9-9----|
|-5-5-5-5-5-5-5-5-7-7-7-7-7-7-7-7-10-10-10-9-9-9-7:-|
|-5-5-5-5-5-5-5-5-5-5-5-5-5-5-5-5--8--8--8-7-7-7-7:-|
|-3-3-3-3-3-3-3-3--------------------------------5:-|



SONG STRUCTURE

	Intro
	Riff 1
	Chorus 1
	Riff 1
	Chorus 2
	Break
	Interlude
	Riff 1 (1st bar played only 3 times)
	Chorus 3
	Ending
            
Hard to play? Try these video lessons and learn fast. | Correct




comments powered by Disqus
↑ Back to top | Tablatures and chords are parodies/interpretations of the original songs. You may use it for private study, scholarship, research or language learning purposes only