>
 >
Headlights On A Handgrenade

Headlights On A Handgrenade Guitar Tabs

Tsunami Bomb - Headlights On A Handgrenade chords, tabs, tablatures, lyrics

Guitar lessons | Add/correct | Request | Top 50 tabs Artists:  A B C D E F G H I J K L M N O P Q R S T U V W X Y Z 0-9

Headlights On A Handgrenade Guitar Tabs – Tsunami Bomb

CD, Sheet music, Poster

Do you like Headlights On A Handgrenade? Share with your friends now
Tabs
Intro:
e|------------------------------------------|
B|------------------------------------------|
G|--999---------------5-555/-7--------------|
D|--999--4-5-5555555--5-555/-7-7-7777777----|
A|--777--4-5-5555555--3-333/-5-7-7777777----|
E|-------2-3-3333333-----------5-5555555----|

e|---------------------------------|
B|---------------------------------|
G|--999---------------7--------7-5-|
D|--999--4-5-5555555--7--------7-5-|
A|--777--4-5-5555555--5--------5-3-|
E|-------2-3-3333333---------------|

e|---------------------------------------------------------|
B|---------------------------------------------------------|
G|-----4----5----4----5---4------4----5----4----5----4h5-4-|
D|-222---22---22---22---2----555---55---55---55---55-------|
A|---------------------------------------------------------|
E|---------------------------------------------------------|

e|----------------------------------------|
B|----------------------------------------|
G|------5----4----5----4---5--7--7777777--|
D|----------------------------7--7777777--|
A|--333---33---33---33---3----5--5555555--|
E|----------------------------------------|
				(Palm muted ^)

Verse Riff:
“Ask her to stay. Ignition turns…”
e|---------------------|------------------|
B|---------------------|----8-----8----8--|
G|--9~---9\7/9~----9\7-|-999-99999-9999-9-|
D|--x~---x\x/x~----x\x-|------------------|
A|--7~---7\5/7~----7\5-|------------------|
E|---------------------|------------------|
			     [---play 3times---]

Pre-Chorus: (I don’t know how many times you hit that chord.)
e|----------------------|
B|----------------------|
G|-7777777777777777-----|
D|-7777777777777777-----|
A|-5555555555555555-----|
E|----------------------|

Chorus Riff#1- (The Chorus is played twice. It has two differentendings; they’re both noted there.)
e|----------------------|--------33333333-|-----------------|
B|----------------------|--------33333333-|-----------------|
G|-55555555--44444444---|--------44444444-|---4--5--4--5----|
D|-55555555--44444444—--|-5-5555-55555555-|-22-22-22-22-222-|
A|-33333333--22222222—--|-5-5555-55555555-|-----------------|
E|----------------------|-3-3333-33333333-|-----------------|
				 [-First ending-]  [-Second ending-]

After the Chorus Riff#1, the Verse Riff is played again, and the Pre-Chorus,and then the Chorus follow it, except there’s different parts added.Here’s the other Chorus.

Chorus Riff#2- (Play this Riff twice.)
e|---------------------33-55-33-55-33-55-33-55---|
B|---------------------33-33-33-33-33-33-33-33---|
G|--5-5-555--------------------------------------|
D|--5-5-555--7-7—777-----------------------------|
A|--3-3-333--7-7—777-----------------------------|
E|-----------5-5-555-----------------------------|

(Chorus Riff#2 continued)
e|------------------------------------------------------------|
B|------------------------------------------------------------|
G|-55-xxx--7-77777777--999-11-11-11-12-12-12-13-13-13-12-12-11|
D|-55-xxx--7-77777777--xxx—x--x--x---x--x--x--x--x--x--x--x-x-|
A|-33—xxx--5-55555555--777-9--9--9--10-10-10-12-12-12-10-10-9-|
E|------------------------------------------------------------|

After this second Chorus, the Intro is played again, and then theVerse and the Pre-Chorus are played once, andthen it goes into these riffs-


e|-----------------------|
B|-----------------------|
G|------------------777--|
D|--222-444-555-777-777--|
A|--222-444-555-777-555--|
E|--000-222-333-555------|
   [---play 4 times---]


(^=bend r=release)       
e|---------------------|---------------------------------|
B|--7^r---10^r---7^r---|-8p7-7-9p7-7-8p7-7-9p7-7—8p7-9p7-|
G|------9------9-----9-|---------------------------------|
D|---------------------|---------------------------------|
A|---------------------|---------------------------------|
E|---------------------|---------------------------------|
                      
e|---------------------|---------------------------------|
B|-7^-7^r---10^r---7^--|-8p7-7-9p7-7-8p7-7-9p7-7-8p7-9p7-|
G|--------9------9---9-|---------------------------------|
D|---------------------|---------------------------------|
A|---------------------|---------------------------------|
E|---------------------|---------------------------------|
			[--------play this twice--------]




*(background chords for the above riffs- You don’t really need themsince it’s only one guitar, and it’s edited in there, but I’ll put them incase you don’t wanna play the bends.)
e|-------------------------------------|
B|-------------------------------------|
G|--------------------7-7-77-7-9-9-999-|
D|--5-5-55-x-2-2-222--7-7-77-7-9-9-999-|
A|--5-5-55-x-2-2-222--5-5-55-5-7-7-777-|
E|--3-3-33-x-0-0-000-------------------|

*
e|-------------------------------------|
B|-------------------------------------|
G|--------------------7777777777777777-|
D|--5-5-55-x-2-2-222--7777777777777777-|
A|--5-5-55-x-2-2-222--5555555555555555-|
E|--3-3-33-x-0-0-000-------------------|
  [----repeat * twice up to here----]

then it quickly changes to this chord progression-

e|-----------------------|
B|-----------------------|
G|--55-5/-7--------------|
D|--55-5/-7—-7-77--77-77-|
A|--33-3/-5—-7-77--77-77-|
E|-----------5-55--55-55-|

Then Chorus Riff#2 is played twice, and it’s followed by bends and stuff-
e|--14^r-------------------------|
B|--------17---10^r------7^r-----|
G|-------------------9--------9--|
D|-------------------------------|
A|-------------------------------|
E|-------------------------------|

...and, finally, the song ends like this-
e|----------------------------------|-----|
B|--8p7-7-9p7-7-8p7-7-9p7-7—8p7-9p7-|--7\-|
G|----------------------------------|-----|
D|----------------------------------|-----|
A|----------------------------------|-----|
E|----------------------------------|-----|
 [Repeat this riff 4 times, finish like ^]

**The background chords to the last bends are the same as the into, exceptit finishes with an E chord.
e|-----|
B|-----|
G|-----|
D|--2--|
A|--2--|
E|--0--|





Comments


Popular Tsunami Bomb tabs & chords
5150 Bass Tabs
Say It If You Mean It Bass Tabs
Take The Reins Bass Tabs
Lemonade Chords
...Not Forever 1 Tabs
5150 Tabs
A Lonely Chord Tabs
I Bought You Tabs
Lemonade Tabs
Swimming Through Molasses Tabs


Song lyrics



↑ Back to top | Tablatures and chords are parodies/interpretations of the original songs. You may use it for private study, scholarship, research or language learning purposes only
© 2014 AZChords.com Contact us | Privacy policy | DMCA | Add/correct tabs | Request tabs | Top 50 tabs