» » »

Rock 'n Roll Machine Tabs (ver.2)

Artists:  A B C D E F G H I J K L M N O P Q R S T U V W X Y Z # 

Rock 'n Roll Machine Tabs (ver.2)

Triumph
Rating:
0/5 (0 votes)

Hard to play? Try these video lessons and learn fast.
                e|----------------------------------|
b|----------------------------------|              x-muffed notes
g|----------------------------------| repeat
d|-12-xxx-10------12\-15-14---------|
a|-10-xxx-8--10xx-10\-13-12--15-----|
e|----xxx----8-xx------------13-----|


e|-------------------------------------------------|
b|-------------------------------------------------|
g|-------------------------------------------------| 
d|-12-xxx-10------12\-15-14---------12-10----------|
a|-10-xxx-8--10xx-10\-13-12--15-----10-8-10-10-10--|
e|----xxx----8-xx------------13-----------8-8-8----|

e|-----------------------------------|
b|-----------------------------------|
g|-----------------------------------|
d|---------------------------3-------|
a|-3/5555--3/55555--3/55555--1--3----|
e|-1/3333--1/33333--1/33333---0-1----|
     pm      pm       pm


                             This is all i know i'll try to figure more out.
            
Hard to play? Try these video lessons and learn fast. | Correct




comments powered by Disqus
↑ Back to top | Tablatures and chords are parodies/interpretations of the original songs. You may use it for private study, scholarship, research or language learning purposes only