» » »

Petite Etude Tabs (ver.1)

Artists:  A B C D E F G H I J K L M N O P Q R S T U V W X Y Z # 

Petite Etude Tabs (ver.1)

Triumph
Rating:
3/5 (6 votes)

Hard to play? Try these video lessons and learn fast.
                petite etude tab by triumph       rik emmett


classical guitar.. sreve


|----1-|-0h1p0-----------------------------|--0-------------------|
|---1--|-------3---1----0--------1-3-----3-|----3---3--1---1p0----|
|--2---|---------2---2------0----------0---|------0------0-----0--|
|-0----|----------------------0------0-----|----------------------|
|------|---------------------------2-------|-3---------2----------|
|------|----------------3------------------|----------------------|

|-------------------|-----------------------------------------|
|-------0-1------1--|--3-----1h3p1p0--------------------0-----|
|-2---2---2----2----|----2-----------2---2--1-----1-2---------|
|---2--------2------|--3---3-----------3------2-------2---2---|
|-0-----------------|---------------------------2-------------|
|---------3---------|-----------------------0-----------------|

|---------------------|-----------------|-----5--3h5p3-1h3p1p0------|
|-1------1p0h1---3----|-5-----5-6-6-8---|----6-----------------3-1--|
|---2----------2---2--|-----6-----6-----|---5-----------------------|
|-----2---------------|---5-------------|--7------------------------|
|-0-------------------|-0---------------|-5-------------------------|
|---------------------|-----------------|---------------------------|

|-------0--1-----1--3-----1-0-------------------0-------0----|
|-3------------0------1---------3----3p1-----3--1-----1------|
|---0--------0----------0---------0------2------0---0--------|
|-----0-----------------------0------------2----2------------|
|----------2--------3-------2--------0----------3------------|
|-3---------------------------------------------3------------|

|----1-|-1p0-------------------------|-----0----0--------------5---|
|---1--|-----3---1----0-----0--1---3-|----0----0--0----------------|
|--2---|-------1---1------1------1---|---5----5----5-------0-------|
|-0----|----------------2------------|--5----5------5----4---4-----|
|------|-----------------------------|-0---------------0-----------|
|------|--------------0--------------|-----------------------------|

|-----7p5-----10p8----7p5----------------------------5---|
|----5-------8-------5-------7p5---------3---------3-----|
|---5-------8-------5-------5----------0---------0-------|
|--5-----------------------5---------4---------4---------|
|-0--------------------------------5---------5-----------|
|--------------------------------------------------------|

|-1p0--------------0------------------------------------------------0---|
|-----3-1-0-1-3------3-1-0----0-1-0--3-1-0------------------0-2-0-2-----|
|---------------0----------2---------------2-1---0----2-1-2-------------|
|-0----------------------------------3---------2---1--------------------|
|------------------3-------0--------------------------0-------0---------|
|---------3----------------------------------0--------------------------|

|-5p3-------0-1---3-1-0-------0---|-----1p0h1-3---5p3h5-7-----|
|-----6-5-3-----3-------3-1-3---1-|----1----------------------|
|---------------------------------|---2-----------0-----------|
|-0-------------------------------|--0------------------------|
|-------------2---3---2---0-------|---------------------------|
|---------3-----------------------|---------------------------|

|--8-----8----8-----8----8-----8---8-----8--|
|------8----------6----------6---------6----|
|----9----------7----------5---------5------|
|-10----------8----------7---------6--------|
|-------------------------------------------|
|-------------------------------------------|

|-------3---3-----3--------1---1-----1------|
|-----5---------3--------1---------1--------|
|---5---------3--------2---------1----------|
|-5---------3--------3---------3------------|
|-------------------------------------------|
|-------------------------------------------|

|-0-----0------------------------------------|
|-----1----3-----3-----3p1-----1--1p0-----0--|
|---0----------0------2----2----------0------|
|------------0-------2-------2----------0----|
|-3--------2--------0------------------------|
|---------------------------------3----------|

|---------------------------------------------|
|-1-----1---1p0---0---1----------------*13*---|
|-----2---------2-------0---0-----------------|
|---3---------------------2-------------------|
|-3-------------------3-------3---------------|
|-----------3---------------------------------|
            
Hard to play? Try these video lessons and learn fast. | Correct




comments powered by Disqus
↑ Back to top | Tablatures and chords are parodies/interpretations of the original songs. You may use it for private study, scholarship, research or language learning purposes only