» » »

Magic Power Tabs (ver.2)

Artists:  A B C D E F G H I J K L M N O P Q R S T U V W X Y Z # 

Magic Power Tabs (ver.2)

Triumph
Rating:
0/5 (0 votes)

Hard to play? Try these video lessons and learn fast.
                Lines: 52

Here's how I play 'Magic Power' as I believe Rick Emmett plays it,
I've only seen him play it once but I'm fairly sure that it is in
the correct key.   He LOVES to pick the heck out of the open D chord
as you will quickly see.


D

|-------0-2-----|-------3-3>2-----|-------0-2-----|-------0-2-----
|---3-------3---|---3-------------|---3-----------|---3-----------
|-----2-------2-|-----2-------3---|-----0-----3---|-----0-----3---
|-0-------------|-0---------------|---------------|---------------
|---------------|---------------2-|-3-----------0-|-2-----------0-
|---------------|-----------------|---------------|---------------


|-------3-3>2-----|-------0-2-----|-----3>2-----|-------0-2--
|---3---------3---|---3-------3---|---3-----3---|---3-------3
|-----0---------0-|-----0-------0-|-----------0-|-----2------
|-----------------|---------------|-------------|-0----------
|-2---------------|-3-------------|-3-----------|------------
|-----------------|---------------|-------------|------------


|-------0-2---|-------0-2---|-------0-2---|---------|---------
|---3-------3-|---3-------3-|---3-------3-|---3-----|---3-----
|-----0-------|-----0-------|-----0-------|-----0---|-----0---
|-------------|-------------|-------------|-------0-|-------0-
|-3-----------|-2-----------|-2-----------|---------|---------
|-------------|-------------|-------------|-3-------|-2-------

|-----0-----|-----0-----|-----0-----|---
|-------3---|-------3---|-------3---|---
|---0-----0-|---0-----0-|---0-----0-|---
|-----------|-----------|-----------|---
|-----------|-----------|-----------|-0-
|-0---------|-2---------|-3---------|---



    D C B C  (x2)

    E F# G A

    E F# A


     There's more to it, I just didn't have the time to write it down,
let me know if you want the rest of it!
            
Hard to play? Try these video lessons and learn fast. | Correct




comments powered by Disqus
↑ Back to top | Tablatures and chords are parodies/interpretations of the original songs. You may use it for private study, scholarship, research or language learning purposes only