» » »

Magic Power Bass tabs (ver.1)

Artists:  A B C D E F G H I J K L M N O P Q R S T U V W X Y Z # 

Magic Power Bass tabs (ver.1)

Triumph
Rating:
5/5 (1 vote)

Hard to play? Try these video lessons and learn fast.
                -----------------------------------------------------------------------------
-----------------------------------------------------------------------------


Tuning: STANDARD

  No Bass in the first verse. The Bass comes in as below.	


   "I'm young, I'm wild..."
G|------------------------------------------------------------------------|
D|-------12------10------\5-------5---4-----------4-------5-------7-------|
A|-5/-------------------------------------7-------------------------------|
E|------------------------------------------------------------------------|

G|-------------------------------------------------------------14---------|
D|-12-----10------5-------5---4-----------4-------7----------/------------|
A|--------------------------------7---------------------------------------|
E|------------------------------------------------------------------------|


  Elec Gtr/"She climbs into bed..."
G|------------------------------------|
D|-12-------10-------9-------10-------|
A|------------------------------------|     Play 3x
E|------------------------------------|


   "Makes her feel much better..."
G|-----------------------------------------------------------------|
D|-----------------------------------------------------------------|
A|-0-0-0-0-0-0-0-0-2-2-2-2-2-2-2-2-3-3-3-3-3-3-3-3-------------3-2-|
E|-------------------------------------------------3-3-3-3-3-3-----|

G|---------------------------------------------------------12-14-------|
D|---------------------------------5/7----5h7---5-7-----7/-------------|
A|-0-0-0-0-0-0-0-0-2-2-2-2-2-2-2-2-------------------------------------|
E|---------------------------------------------------------------------|


   "She's young now..."
G|---------------------------------------------------------------------------|
D|---------------------------------------------------------------------------|
A|-5-5-5-5-5-5-5-5-3-3-3-3-3-3-3-3-2-2-2-2-2-2-2-2---------------------------|
E|-------------------------------------------------3---2---0-0-0-0-0-0-0-0-0-|

G|---------------------------------------------------------------------------------|
D|---------------------------------------------------------------------------------|
A|-------------------------------------------------5-5-5-5-5-5-5-5-3-3-3-3-3-3-3-3-|
E|-2-2-2-2-2-2-2-2-3-3-3-3-3-3-3-3-5-5-5-5-5-5-5-5---------------------------------|

G|--------------------------------------------------------------------------|
D|-----------------5---4---2-2-2-2-2-2-2-2-4-4-4-4-4-4-4-4-7-7-7-7-7-7-7----|
A|-2-2-2-2-2-2-2-2----------------------------------------------------------|
E|-----------------------------------------------------------------------5\-|

  
   Bridge
G|-----------------------------------------|
D|--------------------/12------------12----|
A|-5-------5--------------------5----------|
E|-----------------------------------------|


   "You're thinking it over..."
G|----------------------------------------------------------------------|
D|----------------------------------------------------------------------|
A|-5--5--5--5--5--5--5--5--5--5--5--5--5--5--5-12\-5--5--5--5--5--5--5--|
E|----------------------------------------------------------------------|

G|-------------------------------------------------------------------|
D|-------------------------------------------------------------------|
A|-5--5--5--5--5--5--5-5-5-5-5-5-5-5-5-5-5-5-5-5-5-5-5-5-5-5-5-5-5-5-|
E|-------------------------------------------------------------------|

G|------------------------------------------------------------------|
D|-----------------/12-12-12-12-12-12-12-12-12-12-12-12-12-12-12-12-|
A|-5-5-5-5-5-5-5-5--------------------------------------------------|
E|------------------------------------------------------------------|


G|-------------------|
D|-------------------|
A|-5-5----5---3-3----| Play 4x
E|------5---5----3---|

  "The world is full of compromise..."
G|---------------------------------------------------------------------------------|
D|---------------------------------------------------------------------------------|
A|-5-5-5-5-5-5-5-5-5-5-5-5-5-5-5-5-3-3-3-3-3-3-3-3-3-3-3-3-3-3-3-3-2-2-2-2-2-2-2-2-|
E|---------------------------------------------------------------------------------|

G|---------------------------------------------------------------------------------|
D|---------------------------------------------------------------------------------|
A|-2-2-2-2-2-2-2-2-3-3-3-3-3-3-3-3-3-3-3-3-3-3-3-3-5-5-5-5-5-5-5-5-5-5-5-5-5-5-5-5-|
E|---------------------------------------------------------------------------------|

G|-----------------------------------------------------------------|
D|-----------------------------------------------------------------|
A|-3-3-3-3-3-3-3-3-3-3-3-3-3-3-3-3-2-2-2-2-2-2-2-2-2-2-2-2-2-2-2-2-|
E|-----------------------------------------------------------------|

G|-------------------------------------------|
D|------------------5-6-7----7---5-7---------|
A|----------------7------------7-------------|
E|-3-5---5--5-5------------------------------|

  "I'm young now..."
G|---------------------------------------------------------------------------|
D|-------------------------------------------------5---4---2-2-2-2-2-2-2-2-2-|
A|-5-5-5-5-5-5-5-5-3-3-3-3-3-3-3-3-2-2-2-2-2-2-2-2---------------------------|
E|---------------------------------------------------------------------------|

G|---------------------------------------------------------------------------------|
D|-4-4-4-4-4-4-4-4-5-5-5-5-5-5-5-5-7-7-7-7-7-7-7-7---------------------------------|
A|-------------------------------------------------5-5-5-5-5-5-5-5-3-3-3-3-3-3-3-3-|
E|---------------------------------------------------------------------------------|

G|-------------------------------------------------------------------------|
D|-----------------5---4---2-2-2-2-2-2-2-2-4-4-4-4-4-4-4-4-7-7-7-7-7-7-7-7-|
A|-2-2-2-2-2-2-2-2---------------------------------------------------------|
E|-------------------------------------------------------------------------|

G|--------------------------------/14--------|
D|-7-7-7-7-7--------7-7-7-7-7-7-7------------|
A|-----------7-9-10--------------------------|
E|-------------------------------------------|


G|-------------------|
D|-------------------|
A|-5-5----5---3-3----| Fade Out
E|------5---5----3---|





| /  slide up
| \  slide down
| h  hammer-on
===============================================================================
            
Hard to play? Try these video lessons and learn fast. | Correct




comments powered by Disqus
↑ Back to top | Tablatures and chords are parodies/interpretations of the original songs. You may use it for private study, scholarship, research or language learning purposes only