» » »

Triumph, Lay It On The Line Bass tabs (ver.1)

Artists:  A B C D E F G H I J K L M N O P Q R S T U V W X Y Z # 

Lay It On The Line Bass tabs (ver.1)

Triumph Tabs
 Rating:
4/5 (4 votes)
Lay It On The Line lessons Tabs too difficult? Try these video lessons and learn fast
                -------------------------------------------------------------------------------
-------------------------------------------------------------------------------


Tuning: Standard

No Bass in the first couple of measures.

G|-------------------------------------------------------------------|
D|-------------------------------------------------------------------|
A|-12-\-----------12-\--5--------5-/--12--------12-\--5--------------|
E|-------5-----------------------------------------------------10-\--|

  VERSE: "It's the same old story..."
G|-------------------------------------------------------------------------------|
D|--------------------------------------------7----5----4---------3----5----7----|
A|-----------5--------5------------5--------5----------------5-------------------|
E|-5-------5------------5--------5-----------------------------------------------|


  VERSE: "I'm tired of playin'..."
G|----------------------------------------------------------------------------|
D|-----------3-------3--3333-----------3--------3-3-5/-7---0-5---0-4----------|
A|---------------------------------------------------------------------0-3-5--|
E|-5-------5-------55-------5--------5----------------------------------------|

G|---------------------------------|
D|---------------------------------|
A|-0-------------------------------|
E|---3-1----3----3-/5-----------5\-|


  CHORUS: "Lay it on the line..."
G|-------------------------------------------------------------------------------------|
D|-------------------------------------------------------------------------------------|
A|-------------------------------------------------------------------------------------|
E|--1-1---03-3---05-5---05-5---1-1---03-3---05-5---05-5-x3---1-1---03-3---1----------1-|


  GUITAR SOLO (short)
G|------------------------------------------------------|
D|------------------------------------------------------|
A|------------------------------------------------------|
E|-5--5-5\------1--1-1-------5--5-5\-------1--1-1-------|


  VERSE: "You got no right...."
G|---------------------------------------------------------------------------|
D|---------------------------------------------------------------------------|
A|------------------------8---0-3-5-5----------------------------8---0-3/(5)-|
E|-3-h5---5--3-h5-5---5/-----------------0-3-5-----3-h5-5----5/--------------|

G|------------------------------------------------------------------------------|
D|------------------------------------------------------------------------------|
A|---------------------------------5-----0--------------------------------------|
E|-0-3-5---5---0-3-3---0--2----2/----------3-1----3-3-----3-5-------------------|


CHORUS: "Lay it on the line..."
G|-------------------------------------------------------------------------------------|
D|-------------------------------------------------------------------------------------|
A|-------------------------------------------------------------------------------------|
E|--1-1---03-3---05-5---05-5---1-1---03-3---05-5---05-5-x3---1-1---03-3---1----------1-|


GUITAR SOLO (long)
G|------------------------------------------------------|
D|------------------------------------------------------|
A|------------------------------------------------------|
E|-5--5-5\------1--1-1-------5--5-5\-------1--1-1-------|

G|-------------------------------------------------------------|
D|-------------------------------------------------------------|
A|-5--5/-10--------------------------7------------------4--7---|
E|-------------8--7--5--3--1----1-1/----0----0-0--5--7---------|

G|-------------------------------------------------------------------------|
D|-----3-4-5---------------------------------------------------------------|
A|-5-----------2---3--2--0---------------------0-0---0-0---3/(5)-----------|
E|-----------3--------------3--1----1-0----0-3-------------------3-3--3-3--|

G|-------------------------------------------------------------|
D|---------------------------------------------------3----5----|
A|----------------------------------3-------3-5----------------|
E|-2-2--2-2---2-1----3----5-----3-5-------5--------------------|


  BRIDGE: "You know I love you..."
G|-----------------------------------------------------------|
D|-----------------------------------------------------------|
A|-----------------------5-----------------------------5-----|
E|-5--5\--------1--1-1---------0-3-5--5\-------1-1-----------|

  "Don't hold me up girl..."
G|--------------------------------------------------------------------------|
D|--------------------------------------------------------------------------|
A|-------------------3-5---------3-4-5--------------------------------------|
E|-5-5-5----3--3---------2--2-----------5\---1-1------3-3------5---------5\-|


  CHORUS: "Lay it on the line..."
G|------------------------------|  This keeps repeating
D|------------------------------|  through until the fade out.
A|------------------------------|  
E|-1-1---03-3---05-5---05-5-x3--|


  
G|-----------------------------------|  Just as the fade starts, however,
D|---------------------7-------------|  there is this little riff. It's around the 7th time.
A|-----------------------------------|  After the lyrics "No, don't hold me up."
E|-1-1---03-3---05-0-5---0-3-5-5-x3--|  


| /  slide up
| \  slide down
| h  hammer-on
|( ) not struck
| x  Mute note
===============================================================================
            
Submit corrections

comments powered by Disqus
↑ Back to top | Triumph Bass for Lay It On The Line. Lyrics for acoustic guitar and electric guitar. Tablatures and chords are parodies/interpretations of the original songs. You may use it for private study, scholarship, research or language learning purposes only