» » »

Tribal Seeds, Dawn Of Time Tabs (ver.1)

Artists:  A B C D E F G H I J K L M N O P Q R S T U V W X Y Z # 

Dawn Of Time Tabs (ver.1)

Tribal Seeds Tabs
Rating:
4/5 (2 votes)
Dawn Of Time lessons Tabs too difficult? Try these video lessons and learn fast
                (Intro)
TRIBAL SEEDS
"Dawn of Time" (INTRO)
Standard Tuning

* = HARMONICS

e|------------------12*~---5*-7*----7*----------------------|12*~--7*~---|--12*~--(12*)~--(12*)~--|
B|o------7*----------------------7*----7*--------7*---------|------7*~--o|--12*~--(12*)~--(12*)~--|
G|---5*-----7*--12*-----------------------7*--5*----7*--12*-|------7*~---|--12*~--(12*)~--(12*)~--|
D|----------------------------------------------------------|------------|------------------------|
A|o---------------------------------------------------------|-----------o|------------------------|
E|----------------------------------------------------------|------------|------------------------|

  x4
e|----------------------------------------------------------------------------------------|
B|------8---7-8-7----------------8-7--------------12----12-13-12----------7---7h8p7------o|
G|----9---9-------9---------9--------9-7-------12----12----------12-----7---7-------9-7---|
D|--9--------------------10---10-----------/12------------------------7-------------------|
A|--------------------10-----------------------------------------------------------------o|
E|----------------------------------------------------------------------------------------|
            

comments powered by Disqus
↑ Back to top | Tribal Seeds Tabs for Dawn Of Time. Lyrics for acoustic guitar and electric guitar. Tablatures and chords are parodies/interpretations of the original songs. You may use it for private study, scholarship, research or language learning purposes only