» » »

I Love To Boogie Bass tabs (ver.1)

Artists:  A B C D E F G H I J K L M N O P Q R S T U V W X Y Z # 

I Love To Boogie Bass tabs (ver.1)

T Rex
Rating:
4/5 (1 vote)

Tabs too difficult? Try these video lessons and learn fast.
                intro bit
G-----1---|
D-2-4-----|
A---------|
E---------|

verse, chorus, solo
G-2---2---1-2---2-4-6-7---7-7-6-2---2-|
D---2---2-----2---------7---------2---|
A-------------------------------------|
E-------------------------------------|

G-1-----------1-2---2---1-2---2---1---|
D---4-2---2-4-----2---2-----2---2-----|
A-------2-----------------------------|
E-------------------------------------|

after solo
G-----1-2---2-----1-2---2-2-4-6-7---7-7-6-4--|
D-2-4-----2---2-4-----2-----------7----------|
A--------------------------------------------|
E--------------------------------------------|

G-2---2-2-1-------------1-2---2---|
D---2-------4-2---2-2-4-----2-----|
A---------------2-----------------|
E---------------------------------|


im not sure on the intro  but it sounds right to me
            
Tabs too difficult? Try these video lessons and learn fast.




comments powered by Disqus
↑ Back to top | Tablatures and chords are parodies/interpretations of the original songs. You may use it for private study, scholarship, research or language learning purposes only