>
 >
Ballrooms Of Mars 1

Ballrooms Of Mars 1 Guitar Tabs

T Rex - Ballrooms Of Mars 1 chords, tabs, tablatures, lyrics

Guitar lessons | Add/correct | Request | Top 50 tabs Artists:  A B C D E F G H I J K L M N O P Q R S T U V W X Y Z 0-9

Ballrooms Of Mars 1 Guitar Tabs – T Rex

CD, Sheet music, Poster

Do you like Ballrooms Of Mars 1? Share with your friends now
ChordsChords v2TabsTabs v2Ukulele
T-rex-Ballrooms of Mars
This is my first tab so i hope it goes ok
The A flat chord is shown below, im sure thats it and i didnt tab the solo but what i
have tabbed includes all the notes used, just improvise it.

A flat with flat 5th
e---------------------------------------------------|
B--2------------------------------------------------|
G--2------------------------------------------------|
D--0------------------------------------------------|
A---------------------------------------------------|
E---------------------------------------------------|

                       C   C/b
You gonna look fine
                     A        A flat/flat 5th
Be primed for dancing
                    C          C/b
You're gonna trip and glide
     C/b                    G
All on the trembling plane
                     C      C/b
Your diamond hands
                              A     D7
Will be stacked with roses
       C
And wind and cars
       G                 C
And people of the past


                 C     C/b
I'll call you thing
                     A              A flat/flat 5th
Just when the moon sings
                      C                 C/b
And place your face in stone
                       G
Upon the hill of stars
                            C     C/b
And gripped in the arms
                           A          D7
Of the changeless madman
        C
We'll dance our lives away
          G                C
In the Ballrooms of Mars


                      C   C/b
You talk about day
                         A            A flat/flat 5th
I'm talking 'bout night time
               C                  C/b
When the monsters call out
                     G
The names of men
                C      C/b
Bob Dylan knows
                      A           D7
And I bet Alan Freed did
               C
There are things in night
             G                 C
That are better not to behold

       C     C/b
You dance
                        A                     A flat/flat 5th
With your lizard leather boots on
       C
And pull the strings


        C/b                        G
That change the faces of men
                               C   C/b
You diamond browed hag
                                A          D7
You're a gutter-gaunt gangster
       C                            G
John Lennon knows your name
                     C
And I've seen his

Solo
e-------------------------------------------------------15b(16)-------------------------------------|
B-15-17-17--15-1717--15-1717-15-1715 1717---------17-15-15--15-12 13-12-----------12-13-15---------|
G-----------------------------------------------------------------------------------------14-12-14--|
D---------------------------------------------------------------------------------------------------|
A---------------------------------------------------------------------------------------------------|
E---------------------------------------------------------------------------------------------------|

e---20b(22)------------------|
B------------17-15-17--------|
G----------------------------|
D----------------------------|
A----------------------------|
E----------------------------|

                      C   C/b
You talk about day
                         A            A flat/flat 5th
I'm talking 'bout night time
               C                  C/b
When the monsters call out
                     G
The names of men
                C      C/b
Bob Dylan knows
                      A           D7
And I bet Alan Freed did
               C
There are things in night
             G                 C
That are better not to behold


       C     C/b
You dance
                        A                     A flat/flat 5th
With your lizard leather boots on
       C
And pull the strings


        C/b                        G
That change the faces of men
                               C   C/b
You diamond browed hag
                                A          D7
You're a gutter-gaunt gangster
       C                            G
John Lennon knows your name
                     C
And I've seen his

Solo-fade Out





Comments


Popular T Rex tabs & chords
Children Of The Revolution Bass Tabs
The Woodland Rock Bass Tabs
20th Century Boy Chords
Cat Black 1 Chords
20th Century Boy 1 Tabs
Prelude Tabs
Blessed Wild Apple Girl Ukulele
Jet Tambourine Ukulele
Main Man Ukulele
Mambo Sun Ukulele


Song lyrics



↑ Back to top | Tablatures and chords are parodies/interpretations of the original songs. You may use it for private study, scholarship, research or language learning purposes only
© 2014 AZChords.com Contact us | Privacy policy | DMCA | Add/correct tabs | Request tabs | Top 50 tabs