» » »

Trapt, Victim Tabs (ver.2)

Artists:  A B C D E F G H I J K L M N O P Q R S T U V W X Y Z # 

Victim Tabs (ver.2)

Trapt Tabs
 Rating:
4/5 (4 votes)
Victim lessons Tabs too difficult? Try these video lessons and learn fast
1
                the first tab was pretty good but it was off on some parts. this tab was made with parts 
the original tab. i know its long but i think its right. any corrections please leave a comment.

Trapt
Victim

Drop D tuning

. = palm mute
~ = let ring

Intro/Verse
Guitar 2
e-----------------------|
b-----5---5---5---5-----|
g---6---6---6---6---6---| repeat throughout verse
d-4---------------------|
a-----------------------|
d-----------------------|


Prechorus
Both Guitars
e---------------------------------------------------------------|
b---------------------------------------------------------------|
g---------------------------------------------------------------| 2X
d-4-4-4-4-----4-4-4-4--4--4-----0-0-0-0----2-2-2-2--2--2--------|
a-4-4-4-4-----4-4-4-4--4--4-----0-0-0-0----2-2-2-2--2--2--------|
d-4-4-4-4-----4-4-4-4--4--4-----0-0-0-0----2-2-2-2--2--2--------|

1st Chorus
Both Guitars
e----------------------------------------------|
b----------------------------------------------|
g----------------------------------------------|
d-44444444---222---777----99999999-22222222----| 3X then
a-44444444---222---777----99999999-22222222----|
d-44444444---222---777----99999999-22222222----|

e----------------------------------------------|
b----------------------------------------------|
g----------------------------------------------|
d-44444444---222---777----99999999-4~----------|
a-44444444---222---777----99999999-4~----------|
d-44444444---222---777----99999999-4~----------|

As Guitar 1 lets last chord ring Guitar 2 does a faint pickslide

Verse
Guitar 2
e-----------------------|
b-----5---5---5---5-----|
g---6---6---6---6---6---| repeat throughout verse
d-4---------------------|
a-----------------------|
d-----------------------|

Prechorus
Both Guitars
e---------------------------------------------------------------|
b---------------------------------------------------------------|
g---------------------------------------------------------------| 2X
d-4-4-4-4-----4-4-4-4--4--4-----0-0-0-0----2-2-2-2--2--2--------|
a-4-4-4-4-----4-4-4-4--4--4-----0-0-0-0----2-2-2-2--2--2--------|
d-4-4-4-4-----4-4-4-4--4--4-----0-0-0-0----2-2-2-2--2--2--------|

2nd Chorus
Both Guitars
e----------------------------------------------|
b----------------------------------------------|
g----------------------------------------------|
d-44444444---222---777----99999999/22222222----| 3X then
a-44444444---222---777----99999999/22222222----|
d-44444444---222---777----99999999/22222222----|

e----------------------------------------------|
b----------------------------------------------|
g----------------------------------------------|
d-44444444---222---777----99999999/44444444----|
a-44444444---222---777----99999999/44444444----|
d-44444444---222---777----99999999/44444444----|
                                   ........

Interlude Part 1
Guitar 2
e------------------------------------------------------------|
b------------------------------------------------------------|
g---------------6-6-6-6-6-6------------------6-6-6-6-8-9-----|
d-4-4-4-4-4-4-4--------------4-4-4-4-4-4-4-4-----------------|
a------------------------------------------------------------|
d------------------------------------------------------------|
  . . . . . . . . . . . . .  . . . . . . . . . . . . . .

Interlude part 2
Guitar 2
e-----------------------------------------------------|\---- /
b-12-12-12-12-12--10-10-10-10-10--9-9-9--5-5-5-------------- / \
g----------------------------------------------------------- /  \
d----------------------------------------------------------- /   \
a----------------------------------------------------------- /    \
d----------------------------------------------------------- /     \
                                                             \ 4X then
e-----------------------------------------------------|     -- /
b-12-12-12-12-12--10-10-10-10-10--9-9-9--7-7-7--------|    --- /
g-----------------------------------------------------|   ---- /
d-----------------------------------------------------|  ----- /
a-----------------------------------------------------| ------ /
d-----------------------------------------------------|------- /

Interlude part 3
Guitar 1
e---------------------------------------------------------------|
b---------------------------------------------------------------|
g---------------------------------------------------------------| 2X
d-4-4-4-4-----4-4-4-4--4--4-----0-0-0-0----2-2-2-2--2--2--------|
a-4-4-4-4-----4-4-4-4--4--4-----0-0-0-0----2-2-2-2--2--2--------|
d-4-4-4-4-----4-4-4-4--4--4-----0-0-0-0----2-2-2-2--2--2--------|

Guitar 2
e-----------------------------------------------------|\---- /
b-12-12-12-12-12--10-10-10-10-10--9-9-9--5-5-5-------------- / \
g----------------------------------------------------------- /  \
d----------------------------------------------------------- /   \
a----------------------------------------------------------- /    \
d----------------------------------------------------------- /     \
                                                             \ 2X
e-----------------------------------------------------|     -- /
b-12-12-12-12-12--10-10-10-10-10--9-9-9--7-7-7--------|    --- /
g-----------------------------------------------------|   ---- /
d-----------------------------------------------------|  ----- /
a-----------------------------------------------------| ------ /
d-----------------------------------------------------|------- /

Final Chorus part 1
Both Guitars
e----------------------------------------------|
b----------------------------------------------|
g----------------------------------------------|
d-44444444---222---777----99999999-22222222----| 4X then
a-44444444---222---777----99999999-22222222----|
d-44444444---222---777----99999999-22222222----|

Final Chorus part 2
Guitar 1
e----------------------------------------------|
b----------------------------------------------|
g----------------------------------------------|
d-4-4-9------222---777----99999999-22222222----|
a-4-4-9------222---777----99999999-22222222----|
d-4-4-9------222---777----99999999-22222222----|
  . .

e----------------------------------------------|
b----------------------------------------------|
g----------------------------------------------|
d-44444444---222---777----99999999-22222222----| 2X then
a-44444444---222---777----99999999-22222222----|
d-44444444---222---777----99999999-22222222----|

e----------------------------------------------|
b----------------------------------------------|
g----------------------------------------------|
d-44444444---222---777----99999999/44444444----|
a-44444444---222---777----99999999/44444444----|
d-44444444---222---777----99999999/44444444----|

Guitar 2
e-----------------------------9-9-9-9---------------------- /
b-12-12-12-12-12--10-10-10-10---------99-9-9-9------------- / \
g---------------------------------------------------------- /  \
d---------------------------------------------------------- /   \
a---------------------------------------------------------- /    \
d---------------------------------------------------------- /     \
                                                            \ 2X then
e-----------------------------------------------------     -- /
b-12-12-12-12-12--10-10-10-10--9-9-9--5-5-5-----------    --- /
g-----------------------------------------------------   ---- /
d-----------------------------------------------------  ----- /
a----------------------------------------------------- ------ /
d------------------------------------------------------------ /

e-----------------------------9-9-9-9-----------------|
b-12-12-12-12-12--10-10-10-10---------99-9-9-9--------|
g-----------------------------------------------------|
d-----------------------------------------------------|
a-----------------------------------------------------|
d-----------------------------------------------------|

e-----------------------------------9-12-9------------|
b-12-12-12-12-12--10-10-10-10--9-12-------------------|
g-----------------------------------------------------|
d-----------------------------------------------------|
a-----------------------------------------------------|
d-----------------------------------------------------|

e-14-14-14-----------------------9-9-9-9--------------|
b----------12-12-12--10-10-10-10---------99-9-9-9-----|
g-----------------------------------------------------|
d-----------------------------------------------------|
a-----------------------------------------------------|
d-----------------------------------------------------|

e-----------------------------------------------------|
b-12-12-12-12-12--10-10-10-10--9-9-9--5-5-5-----------|
g-----------------------------------------------------|
d-----------------------------------------------------|
a-----------------------------------------------------|
d-----------------------------------------------------|

Ending
Both Guitars
e---------------------------------------------------------------|
b---------------------------------------------------------------|
g---------------------------------------------------------------| 2X
d-4-4-4-4-----4-4-4-4--4--4-----0-0-0-0----2-2-2-2--2--2--------|
a-4-4-4-4-----4-4-4-4--4--4-----0-0-0-0----2-2-2-2--2--2--------|
d-4-4-4-4-----4-4-4-4--4--4-----0-0-0-0----2-2-2-2--2--2--------|

if you have any corrections please leave comments.
            
Submit corrections

comments powered by Disqus
↑ Back to top | Trapt Tabs for Victim. Lyrics for acoustic guitar and electric guitar. 1 Tablatures and chords are parodies/interpretations of the original songs. You may use it for private study, scholarship, research or language learning purposes only