» » »

Stories Tabs (ver.4)

Artists:  A B C D E F G H I J K L M N O P Q R S T U V W X Y Z # 

Stories Tabs (ver.4)

Trapt
Rating:
0/5 (0 votes)

Tabs too difficult? Try these video lessons and learn fast.
                (Solo)
lisen 2 song for rithum (how ever u spell it)
Tuning: Standard (E A D G B E)

     Intro/Verse                                play 4x
E|---------------------------------------------------------------------------||
B|---------------------7-5-3-5-4-0-------------------------------------------||
G|-44444x44444/88888/--------------------------------------------------------||4x
D|-xxxxxxxxxxx/xxxxx/--------------------------------------------------------||
A|-22222x22222/66666/--------------------------------------------------------||
E|---------------------------------------------------------------------------||

      Chorus
E|-------------------------------------|-------------------------------------||
B|--------------------------2 times----|----5-4-2---0------------------------||
G|44-------44--------------------------|----------4--------------------------||
D|xx-44444-xx-44444-66666--------------|-------------------------------------||
A|22-xxxxx-22-xxxxx-xxxxx--------------|-------------------------------------||
E|---22222----22222-44444--------------|-------------------------------------||

  solo 1st part "Do you remember....."
E|-----------12-12-12-12-11-9--------------12-14-12-11-9-7-11-------12-14----||
B|-12--12-14------------------12--12-12-14--------------------12-14-------12-||
G|---------------------------------------------------------------------------||
D|---------------------------------------------------------------------------||
A|---------------------------------------------------------------------------||
E|---------------------------------------------------------------------------||

  solo part 2 "for you...."
E|-14-14-12-19-12-11-11-9-7-12-7-9-7-12-7-9-7-14-14-12-19-12-11-9-7-11-12-11-||
B|---------------------------------------------------------------------------||
G|---------------------------------------------------------------------------||
D|---------------------------------------------------------------------------||
A|---------------------------------------------------------------------------||
E|---------------------------------------------------------------------------||

   solo 2nt part continued
E|-7--12-11-7-12-11-7--------------------------------------------------------||
B|---------------------------------------------------------------------------||
G|---------------------------------------------------------------------------||
D|---------------------------------------------------------------------------||
A|---------------------------------------------------------------------------||
E|---------------------------------------------------------------------------||
 
 im not 2 sher about the chorus.
 but thats it have fun now.
            
Tabs too difficult? Try these video lessons and learn fast.




comments powered by Disqus
↑ Back to top | Tablatures and chords are parodies/interpretations of the original songs. You may use it for private study, scholarship, research or language learning purposes only