» » »

Trapt, Stories Tabs (ver.1)

Artists:  A B C D E F G H I J K L M N O P Q R S T U V W X Y Z # 

Stories Tabs (ver.1)

Trapt Tabs
 Rating:
4/5 (4 votes)
Stories lessons Tabs too difficult? Try these video lessons and learn fast
                Trapt
"Stories"

This is an awesome song and is relatively easy to play.  Its not all my work, i got a lot of it from some
dude's tab on another site. I just changed a bunch of lyrics and the slide part of the main riff wasnt 
right.  Enjoy.

/=slide up
h=hammer
p=pulloff
*=bend that 3rd string up and down quickly

Intro(2x)              
         B                 B                                       
|-7-7-7-7-7-7-7-7-|-7-7-7-7-7-7-7--7-|-----------------|-----------------|
|-7-7-7-7-7-7-7-7-|-7-7-7-7-7-7-7--7-|-----------------|-----------------|
|-8-8-8-8-8-8-8-8-|-8-8-8-8-8-8-8--8-|-8-8-8-8-8-8-8h9-|9/11-9-8-8h9*-8--|
|-9-9-9-9-9-9-9-9-|-9-9-9-9-9-9-9h11-|-9-9-9-9-9-9-9-9-|----------------9|
|-9-9-9-9-9-9-9-9-|-9-9-9-9-9-9-9--9-|-6-6-6-6-6-6-6-6-|-----------------|
|-7-7-7-7-7-7-7-7-|-7-7-7-7-7-7-7--7-|-----------------|-----------------|
 
Verse(2x)
           B                  B                             
|-7-7-7-7-7-7-7-7-|-7-7-7-7-7-7-7--7-|-----------------|-----------------|
|-7-7-7-7-7-7-7-7-|-7-7-7-7-7-7-7--7-|-----------------|-----------------|
|-8-8-8-8-8-8-8-8-|-8-8-8-8-8-8-8--8-|-8-8-8-8-8-8-8h9-|9/11-9-8-8h9*-8--|
|-9-9-9-9-9-9-9-9-|-9-9-9-9-9-9-9h11-|-9-9-9-9-9-9-9-9-|----------------9|
|-9-9-9-9-9-9-9-9-|-9-9-9-9-9-9-9--9-|-6-6-6-6-6-6-6-6-|-----------------|
|-7-7-7-7-7-7-7-7-|-7-7-7-7-7-7-7--7-|-----------------|-----------------|

I found a line 
and then it grew.
I found myself 
still thinking of you.

I felt so empty 
and now I'm fine.
But still it's burning   
when will you be mine. 
 
Chorus
 
|-----------------|---------------------|-----------------|---------|
|-----------------|---------------------|-----------------|---------|
|-8-8-8-8-4-4-4-4-|-11-11-11-11-6-6-6-6-|-8-8-8-8-4-4-4-4-|-4-4-6-6-|
|-9-9-9-9-4-4-4-4-|-11-11-11-11-6-6-6-6-|-9-9-9-9-4-4-4-4-|-4-4-6-6-|
|-6-6-6-6-2-2-2-2-|--9--9--9--9-4-4-4-4-|-6-6-6-6-2-2-2-2-|-2-2-4-4-|
|-----------------|---------------------|-----------------|---------|
 
Too much of the same
stories in our lives.  
I think its time for change
don't you?
                                                                          
|-----------------|---------------------|-----------------|---------
|-----------------|---------------------|-----------------|---------
|-8-8-8-8-4-4-4-4-|-11-11-11-11-6-6-6-6-|-8-8-8-8-4-4-4-4-|-4-4-6-6-
|-9-9-9-9-4-4-4-4-|-11-11-11-11-6-6-6-6-|-9-9-9-9-4-4-4-4-|-4-4-6-6-
|-6-6-6-6-2-2-2-2-|--9--9--9--9-4-4-4-4-|-6-6-6-6-2-2-2-2-|-2-2-4-4-
|-----------------|---------------------|-----------------|---------
 
Too much of the same
stories in our lives.     
I think it's time for us
to walk away from ...
 
--------------------|
--------------------|
--------------4-----|
--------------4-----|
-7---6---4----2-----|
---0---0---0--2-----|
 
.......heeeeeeeeere
 
 
Bridge (2x both guitar and lyrics)

         B                  B                             
|-7-7-7-7-7-7-7-7-|-7-7-7-7-7-7-7--7-|-----------------|------------------|
|-7-7-7-7-7-7-7-7-|-7-7-7-7-7-7-7--7-|-----------------|------------------|
|-8-8-8-8-8-8-8-8-|-8-8-8-8-8-8-8--8-|-8-8-8-8-8-8-8h9-|9/11-9-8-8h9*-8---|
|-9-9-9-9-9-9-9-9-|-9-9-9-9-9-9-9h11-|-9-9-9-9-9-9-9-9-|----------------9-|
|-9-9-9-9-9-9-9-9-|-9-9-9-9-9-9-9--9-|-6-6-6-6-6-6-6-6-|------------------|
|-7-7-7-7-7-7-7-7-|-7-7-7-7-7-7-7--7-|-----------------|------------------|
 
Stories in our lives  we keep them all insiiiiiiiiiiide....
 
Verse
(Play 3 times)
         B                  B                             
|-7-7-7-7-7-7-7-7-|-7-7-7-7-7-7-7--7-|-----------------|-----------------|
|-7-7-7-7-7-7-7-7-|-7-7-7-7-7-7-7--7-|-----------------|-----------------|
|-8-8-8-8-8-8-8-8-|-8-8-8-8-8-8-8--8-|-8-8-8-8-8-8-8h9-|9/11-9-8-8h9*-8--|
|-9-9-9-9-9-9-9-9-|-9-9-9-9-9-9-9h11-|-9-9-9-9-9-9-9-9-|----------------9|
|-9-9-9-9-9-9-9-9-|-9-9-9-9-9-9-9--9-|-6-6-6-6-6-6-6-6-|-----------------|
|-7-7-7-7-7-7-7-7-|-7-7-7-7-7-7-7--7-|-----------------|-----------------|
 
Look at me   
still in your mind.
our memories     
so intertwined.
 
Well you broke thru
and found your way.  
and so did I   
no need to stay.
|-------------------|
|-------------------|
|9/11-9-8-8h9-8-9p8-|
|------------------9|
|-------------------|
|-------------------|
 
The same ol' picture
tried and true.  
we've been thru that 
let's look for something new.
 
Chorus
 
|-----------------|---------------------|-----------------|---------|
|-----------------|---------------------|-----------------|---------|
|-8-8-8-8-4-4-4-4-|-11-11-11-11-6-6-6-6-|-8-8-8-8-4-4-4-4-|-4-4-6-6-|
|-9-9-9-9-4-4-4-4-|-11-11-11-11-6-6-6-6-|-9-9-9-9-4-4-4-4-|-4-4-6-6-|
|-6-6-6-6-2-2-2-2-|--9--9--9--9-4-4-4-4-|-6-6-6-6-2-2-2-2-|-2-2-4-4-|
|-----------------|---------------------|-----------------|---------|
 
Too much of the same
stories in our lives.  
I think its time for change
don't you?
                                                                          
Too much of the same
stories in our lives.
I think it's time for us
to walk away from ...
 
--------------------|
--------------------|
-----------------4--|
----------------4---|
-7---6---4-----2--- |
---0---0---0--2---- |
 
.......heeeeeeeeere

 
Bridge 2  
(There is one guitar playing chords and another playing a riff, I'm
including both)
 
Guitar 1 (riff played at same time as guitar 2; lyrics are same as
below)
 
|-7------7-11-12---12-12-11-9--7-|-7-9-12h14p12-11-9h11h12-7-|
|--------------------------------|---------------------------|
|--------------------------------|---------------------------|
|--------------------------------|---------------------------|
|--------------------------------|---------------------------|
|--------------------------------|---------------------------|
 
|-7-11-12---12-12-11-9--7-|-7-9-11-14-7-14-7-|
|-------------------------|------------------|
|-------------------------|------------------| 
|-------------------------|------------------|
|-------------------------|------------------|
|-------------------------|------------------|
 
Guitar 2 (playing chords at same time)

|-------------------------|----------------------------------|  
|-------------------------|----------------------------------|
|-11-11-11-11-11-11-11-11-|-9--9--9--9--8--8--8--8-------4-4-|
|-11-11-11-11-11-11-11-11-|-9--9--9--9--9--9--9--9-------4-4-|
|--9--9--9--9--9--9--9--9-|-7--7--7--7--6--6--6--6-------2-2-|
|-------------------------|----------------------------------|
Do you remember...        
lying on the  beach so late at night.
Do you remember...        
running thru the sprinklers that night.
Do you remember....       
all the songs that I have felt for you.
 
all the songs that I have felt for youuuuu....
 
 
Short Bridge
(Repeat 6 times through the next solo below)
 
|-----------------|-----------------|-----------------|---------|
|-----------------|-----------------|-----------------|---------|
|-4-4-4-4-4-4-4-4-|-8-8-8-8-8-8-8-8-|-9-9-9-9-9-9-9-9-|-4-4-4-4-|
|-4-4-4-4-4-4-4-4-|-9-9-9-9-9-9-9-9-|-9-9-9-9-9-9-9-9-|-4-4-4-4-|
|-2-2-2-2-2-2-2-2-|-6-6-6-6-6-6-6-6-|-7-7-7-7-7-7-7-7-|-2-2-2-2-|
|-----------------|-----------------|-----------------|---------|
...........ooooooooo........                 ...for you...    
 
Solo
(repeat 5 times while Short Bridge plays in background)

|-14-14-----12-19-12-11----11-9-7-9-7-7----7-9-7-11-7-9-7-----7-|
|---------------------------------------------------------------|
|---------------------------------------------------------------|
|---------------------------------------------------------------|
|---------------------------------------------------------------|
|---------------------------------------------------------------|
 
I remember...       the way you made me feel when I was with you
 
I remember...       the smile that always brought me back to you
 
That look in your eyes... I never thought that this could be untrue
 
That look in your eyes... I never thought that this could be
                                                untruuuuuuuue....
 
Bridge (I don't know what else to call it)
(repeat 4 times)

|-----------------|---------------------| 
|-----------------|---------------------| 
|-8-8-8-8-4-4-4-4-|-11-11-11-11-6-6-6-6-| 
|-9-9-9-9-4-4-4-4-|-11-11-11-11-6-6-6-6-| 
|-6-6-6-6-2-2-2-2-|--9--9--9--9-4-4-4-4-| 
|-----------------|---------------------| 
 
.....untruuuee....   doo doo daaaah dah........
 
*after 4th time it flows into the prechorus again one last time...
 
Chorus
 
|-----------------|---------------------|-----------------|---------|
|-----------------|---------------------|-----------------|---------|
|-8-8-8-8-4-4-4-4-|-11-11-11-11-6-6-6-6-|-8-8-8-8-4-4-4-4-|-4-4-6-6-|
|-9-9-9-9-4-4-4-4-|-11-11-11-11-6-6-6-6-|-9-9-9-9-4-4-4-4-|-4-4-6-6-|
|-6-6-6-6-2-2-2-2-|--9--9--9--9-4-4-4-4-|-6-6-6-6-2-2-2-2-|-2-2-4-4-|
|-----------------|---------------------|-----------------|---------|
 
Too much of the same
stories in our lives.
I think its time for a change
don't you?
                                                                          
Too much of the same
stories in our lives.
I think it's time for us 
to walk away from...
 

|-------------------|--------------------------------------|
|-------------------|--------------------------------------|
|-----------------4-|-----------------------------4---4----|
|----------------4--|----------------------------4-----4---|
|-7---6---4-----2---|--7-------6-------4--------2-------2--|
|---0---0---0--2----|------0-------0-------0---2---------2-|
 
.......heeeeeeeeere      (then one last time more slowly)
            
Submit corrections

comments powered by Disqus
↑ Back to top | Trapt Tabs for Stories. Lyrics for acoustic guitar and electric guitar. Tablatures and chords are parodies/interpretations of the original songs. You may use it for private study, scholarship, research or language learning purposes only