>
 >
Stories 2

Stories 2 Guitar Tabs

Trapt - Stories 2 chords, tabs, tablatures, lyrics

Guitar lessons | Add/correct | Request | Top 50 tabs Artists:  A B C D E F G H I J K L M N O P Q R S T U V W X Y Z 0-9

Stories 2 Guitar Tabs – Trapt

CD, Sheet music, Poster

Do you like Stories 2? Share with your friends now
Bass TabsBass Tabs v2ChordsTabsTabs v2Tabs v3Tabs v4Tabs v5Ukulele
 
This song is track 10 on the debut album from Trapt. It is a great song and
fairly easy to learn if you listen to the song while you play for the rhythms.
I'd like to see more Trapt on here, they're a great band. I'll try to do my part
and put more Trapt on here as well.
 
**I included the lyrics that correspond with when the chords are played for ease**

Standard Tuning

Intro
(Play twice)              
         B                 B                             
|-7-7-7-7-7-7-7-7-|-7-7-7-7-7-7-7--7-|-----------------|-------------|
|-7-7-7-7-7-7-7-7-|-7-7-7-7-7-7-7--7-|-----------------|-------------|
|-8-8-8-8-8-8-8-8-|-8-8-8-8-8-8-8--8-|-8-8-8-8-8-8-8h9-|11-9-8-9-8-4-|
|-9-9-9-9-9-9-9-9-|-9-9-9-9-9-9-9h11-|-9-9-9-9-9-9-9-9-|-------------|
|-9-9-9-9-9-9-9-9-|-9-9-9-9-9-9-9--9-|-6-6-6-6-6-6-6-6-|-------------|
|-7-7-7-7-7-7-7-7-|-7-7-7-7-7-7-7--7-|-----------------|-------------|
 
Verse
(Play twice)  
         B                  B                             
|-7-7-7-7-7-7-7-7-|-7-7-7-7-7-7-7--7-|-----------------|-------------|
|-7-7-7-7-7-7-7-7-|-7-7-7-7-7-7-7--7-|-----------------|-------------|
|-8-8-8-8-8-8-8-8-|-8-8-8-8-8-8-8--8-|-8-8-8-8-8-8-8h9-|11-9-8-9-8-4-|
|-9-9-9-9-9-9-9-9-|-9-9-9-9-9-9-9h11-|-9-9-9-9-9-9-9-9-|-------------|
|-9-9-9-9-9-9-9-9-|-9-9-9-9-9-9-9--9-|-6-6-6-6-6-6-6-6-|-------------|
|-7-7-7-7-7-7-7-7-|-7-7-7-7-7-7-7--7-|-----------------|-------------|

I found a line    and then it grew   I found myself   still thinking.. 

I felt so empty   and now I'm fine   But still it's.. when will you.. 
 
Chorus
 
|-----------------|---------------------|-----------------|---------|
|-----------------|---------------------|-----------------|---------|
|-8-8-8-8-4-4-4-4-|-11-11-11-11-6-6-6-6-|-8-8-8-8-4-4-4-4-|-4-4-6-6-|
|-9-9-9-9-4-4-4-4-|-11-11-11-11-6-6-6-6-|-9-9-9-9-4-4-4-4-|-4-4-6-6-|
|-6-6-6-6-2-2-2-2-|--9--9--9--9-4-4-4-4-|-6-6-6-6-2-2-2-2-|-2-2-4-4-|
|-----------------|---------------------|-----------------|---------|
 
Too much of...    stories in our...     I think its...     don't you?
                                                                          
|-----------------|---------------------|-----------------|---------
|-----------------|---------------------|-----------------|---------
|-8-8-8-8-4-4-4-4-|-11-11-11-11-6-6-6-6-|-8-8-8-8-4-4-4-4-|-4-4-6-6-
|-9-9-9-9-4-4-4-4-|-11-11-11-11-6-6-6-6-|-9-9-9-9-4-4-4-4-|-4-4-6-6-
|-6-6-6-6-2-2-2-2-|--9--9--9--9-4-4-4-4-|-6-6-6-6-2-2-2-2-|-2-2-4-4-
|-----------------|---------------------|-----------------|---------
 
 Too much of...   stories in our...     I think it's...   walk away...
 
--------------------|
--------------------|
-----------------4--|
----------------4---|
-7---6---4-----2--- |
---0---0---0--2---- |
 
.......heeeeeeeeere
 
 
Bridge
(Play twice)
         B                  B                             
|-7-7-7-7-7-7-7-7-|-7-7-7-7-7-7-7--7-|-----------------|-------------|
|-7-7-7-7-7-7-7-7-|-7-7-7-7-7-7-7--7-|-----------------|-------------|
|-8-8-8-8-8-8-8-8-|-8-8-8-8-8-8-8--8-|-8-8-8-8-8-8-8h9-|11-9-8-9-8-4-|
|-9-9-9-9-9-9-9-9-|-9-9-9-9-9-9-9h11-|-9-9-9-9-9-9-9-9-|-------------|
|-9-9-9-9-9-9-9-9-|-9-9-9-9-9-9-9--9-|-6-6-6-6-6-6-6-6-|-------------|
|-7-7-7-7-7-7-7-7-|-7-7-7-7-7-7-7--7-|-----------------|-------------|

 
Stories in our lives... we keep them all insiiiiiiiiiiide....
 
Verse
(Play 3 times)

         B                  B                             
|-7-7-7-7-7-7-7-7-|-7-7-7-7-7-7-7--7-|-----------------|-------------|
|-7-7-7-7-7-7-7-7-|-7-7-7-7-7-7-7--7-|-----------------|-------------|
|-8-8-8-8-8-8-8-8-|-8-8-8-8-8-8-8--8-|-8-8-8-8-8-8-8h9-|11-9-8-9-8-4-|
|-9-9-9-9-9-9-9-9-|-9-9-9-9-9-9-9h11-|-9-9-9-9-9-9-9-9-|-------------|
|-9-9-9-9-9-9-9-9-|-9-9-9-9-9-9-9--9-|-6-6-6-6-6-6-6-6-|-------------|
|-7-7-7-7-7-7-7-7-|-7-7-7-7-7-7-7--7-|-----------------|-------------|

 
Look at me        still in your mind  our memories     so intertwined
 
Well you broke... and found your way  and so did I    no need to stay
 
The same ol'...   tried and true...   we've been...  let's look for...
 

Chorus
 
|-----------------|---------------------|-----------------|---------|
|-----------------|---------------------|-----------------|---------|
|-8-8-8-8-4-4-4-4-|-11-11-11-11-6-6-6-6-|-8-8-8-8-4-4-4-4-|-4-4-6-6-|
|-9-9-9-9-4-4-4-4-|-11-11-11-11-6-6-6-6-|-9-9-9-9-4-4-4-4-|-4-4-6-6-|
|-6-6-6-6-2-2-2-2-|--9--9--9--9-4-4-4-4-|-6-6-6-6-2-2-2-2-|-2-2-4-4-|
|-----------------|---------------------|-----------------|---------|
 
Too much of...    stories in our...     I think its...     don't you?
                                                                          
|-----------------|---------------------|-----------------|---------
|-----------------|---------------------|-----------------|---------
|-8-8-8-8-4-4-4-4-|-11-11-11-11-6-6-6-6-|-8-8-8-8-4-4-4-4-|-4-4-6-6-
|-9-9-9-9-4-4-4-4-|-11-11-11-11-6-6-6-6-|-9-9-9-9-4-4-4-4-|-4-4-6-6-
|-6-6-6-6-2-2-2-2-|--9--9--9--9-4-4-4-4-|-6-6-6-6-2-2-2-2-|-2-2-4-4-
|-----------------|---------------------|-----------------|---------
 
 Too much of...   stories in our...     I think it's...   walk away...
 
--------------------|
--------------------|
-----------------4--|
----------------4---|
-7---6---4-----2--- |
---0---0---0--2---- |
 
.......heeeeeeeeere

 
Bridge 2  
(There is one guitar playing chords and another playing a riff, I'm
including both)
 
Guitar 1 (riff played at same time as guitar 2; lyrics are same as
below)
 
|-7------7-11-12---12-12-11-9--7-|-7-9-12h14p12-11-9h11h12-7-|
|--------------------------------|---------------------------|
|--------------------------------|---------------------------|
|--------------------------------|---------------------------|
|--------------------------------|---------------------------|
|--------------------------------|---------------------------|
 
|-7-11-12---12-12-11-9--7-|-7-9-11-14-7-14-7-|
|-------------------------|------------------|
|-------------------------|------------------| 
|-------------------------|------------------|
|-------------------------|------------------|
|-------------------------|------------------|
 
Guitar 2 (playing chords at same time)

|-------------------------|----------------------------------|  
|-------------------------|----------------------------------|
|-11-11-11-11-11-11-11-11-|-9--9--9--9--8--8--8--8-------4-4-|
|-11-11-11-11-11-11-11-11-|-9--9--9--9--9--9--9--9-------4-4-|
|--9--9--9--9--9--9--9--9-|-7--7--7--7--6--6--6--6-------2-2-|
|-------------------------|----------------------------------|
Do you remember...        lying on the  beach so...      night
  
Do you remember...        running...    the sprinklers.. night
  
Do you remember....       all the songs that I have...   you
 
                          all the songs that I have...  youuuuu....
 
 
Short Bridge
(Repeat 6 times through the next solo below)
 
|-----------------|-----------------|-----------------|---------|
|-----------------|-----------------|-----------------|---------|
|-4-4-4-4-4-4-4-4-|-8-8-8-8-8-8-8-8-|-9-9-9-9-9-9-9-9-|-4-4-4-4-|
|-4-4-4-4-4-4-4-4-|-9-9-9-9-9-9-9-9-|-9-9-9-9-9-9-9-9-|-4-4-4-4-|
|-2-2-2-2-2-2-2-2-|-6-6-6-6-6-6-6-6-|-7-7-7-7-7-7-7-7-|-2-2-2-2-|
|-----------------|-----------------|-----------------|---------|
...........ooooooooo........                 ...for you...    
 
Solo
(repeat 5 times while Short Bridge plays in background)

|-14-14-----12-19-12-11----11-9-7-9-7-7----7-9-7-11-7-9-7-----7-|
|---------------------------------------------------------------|
|---------------------------------------------------------------|
|---------------------------------------------------------------|
|---------------------------------------------------------------|
|---------------------------------------------------------------|
 
I remember...       the way you made me feel when I was with you
 
I remember...       the smile that always brought me back to you
 
That look in your eyes... I never thought that this could be untrue
 
That look in your eyes... I never thought that this could be
                                                untruuuuuuuue....
 
Bridge (I don't know what else to call it)
(repeat 4 times)

|-----------------|---------------------| 
|-----------------|---------------------| 
|-8-8-8-8-4-4-4-4-|-11-11-11-11-6-6-6-6-| 
|-9-9-9-9-4-4-4-4-|-11-11-11-11-6-6-6-6-| 
|-6-6-6-6-2-2-2-2-|--9--9--9--9-4-4-4-4-| 
|-----------------|---------------------| 
 
.....untruuuee....   doo doo daaaah dah........
 
*after 4th time it flows into the prechorus again one last time...
 
Chorus
 
|-----------------|---------------------|-----------------|---------|
|-----------------|---------------------|-----------------|---------|
|-8-8-8-8-4-4-4-4-|-11-11-11-11-6-6-6-6-|-8-8-8-8-4-4-4-4-|-4-4-6-6-|
|-9-9-9-9-4-4-4-4-|-11-11-11-11-6-6-6-6-|-9-9-9-9-4-4-4-4-|-4-4-6-6-|
|-6-6-6-6-2-2-2-2-|--9--9--9--9-4-4-4-4-|-6-6-6-6-2-2-2-2-|-2-2-4-4-|
|-----------------|---------------------|-----------------|---------|
 
Too much of...    stories in our...     I think its...     don't you?
                                                                          
|-----------------|---------------------|-----------------|---------
|-----------------|---------------------|-----------------|---------
|-8-8-8-8-4-4-4-4-|-11-11-11-11-6-6-6-6-|-8-8-8-8-4-4-4-4-|-4-4-6-6-
|-9-9-9-9-4-4-4-4-|-11-11-11-11-6-6-6-6-|-9-9-9-9-4-4-4-4-|-4-4-6-6-
|-6-6-6-6-2-2-2-2-|--9--9--9--9-4-4-4-4-|-6-6-6-6-2-2-2-2-|-2-2-4-4-
|-----------------|---------------------|-----------------|---------
 
 Too much of...   stories in our...     I think it's...   walk away...
 

|-------------------|--------------------------------------|
|-------------------|--------------------------------------|
|-----------------4-|-----------------------------4---4----|
|----------------4--|----------------------------4-----4---|
|-7---6---4-----2---|--7-------6-------4--------2-------2--|
|---0---0---0--2----|------0-------0-------0---2---------2-|
 
.......heeeeeeeeere      (then one last time more slowly)
 
h- hammer on
p- pull off
b - bend string up
r - release bend
/ - slide up
\ - slide down
v - vibrato (sometimes written as ~)
t - right hand tap
x - play 'note' with heavy damping

The entire song is tabbed in order, so just follow along for the whole song,
that's it! It's really not that much to learn, as most of the
chords/verses repeat, etc. Email me with any questions. I spent many
hours perfecting this and I'm sure its right. It's also the only tab of this song
you'll find. Hope it was helpful!





Comments


Popular Trapt tabs & chords
Headstrong Bass Tabs
Wasteland Bass Tabs
Echo Chords
Echo 1 Chords
Avelyn Acoustic Intro Tabs
Contagious Tabs
Living In The Eye Of The Storm Tabs
Stories (Solo) Tabs
Stories Slide Part Tabs
These Walls Tabs


Song lyrics



↑ Back to top | Tablatures and chords are parodies/interpretations of the original songs. You may use it for private study, scholarship, research or language learning purposes only
© 2014 AZChords.com Contact us | Privacy policy | DMCA | Add/correct tabs | Request tabs | Top 50 tabs