» » »

New Beginning Tabs (ver.1)

Artists:  A B C D E F G H I J K L M N O P Q R S T U V W X Y Z # 

New Beginning Tabs (ver.1)

Trapt
Rating:
0/5 (0 votes)

Hard to play? Try these video lessons and learn fast.
                hey this is like my 10th tab today so it should be perfect good luck its long
tuning:1E 2B 3G 4D 5A 6E
key
P=pull off
H=hammer on
\=slide up
/=slide down


                             New Beginning


------------------------------------------------|
------------------------------------------------|
-------0-----------------------0--------0---0---|
-----4---4--------------------------------------|     2x
---5-------5---------------8--------------------|
-3-----------3---3-h6----6---6---6-h8-8---8---8-|


p.m.________
--------------6-6-6-----------------------------|
--------------6-6-6-----------------------------|
--------------7-7-7-----------------------------|
-6-6-6-6-6-6--8-8-8-----------------------------|     2x
-6-6-6-6-6-6--6-6-6-----------------------------|
-4-4-4-4-4-4--6-6-6-----------------------------|

pre lead


------------------------------------------------------|
------------------------------------------------------|
-19---------19-17---------17-15---------15-14---------|
----17-0-17-------15-0-15-------13-0-13-------12~~~~~-|
------------------------------------------------------|
------------------------------------------------------|

-----------------6-6-6----|
-----------------6-6-6----|
-----------------7-7-7----|
-6-6-6-6-6-6-6---8-8-8----|    2x
-6-6-6-6-6-6-6---6-6-6----|
-4-4-4-4-4-4-4---6-6-6----|


-------------------------------------------------------|
-------------------------------------------------------|
-19---------19-19---------19-17---------17--17-19~~~~~-|
----17-0-17-------17-0-17-------15-0-15----------------|
-------------------------------------------------------|
-------------------------------------------------------|

clean tone elec. gtr 1
------------------------------------------------------|
------------------------------------------------------|
-19---------19-17---------17-15---------15-14---------|
----17-0-17-------15-0-15-------13-0-13-------12------|   3x
------------------------------------------------------|
------------------------------------------------------|


------3--------3--------5----------------7----------3-------3------|
---7-----7---7------------8-----------10---8--8---7---7---7--------|
-0---------0------------------------------------0-------0-----5-8--|
-----------------5-8--8---8--8--10-10------------------------------|
-------------------------------------------------------------------|
-------------------------------------------------------------------|


----5-----------------7-------|
------8------------10---8-8---|
------------------------------|
-8----8---8-h10-10------------|
------------------------------|
------------------------------|


-----------------6-6-6----|
-----------------6-6-6----|
-----------------7-7-7----|
-6-6-6-6-6-6-6---8-8-8----|    2x
-6-6-6-6-6-6-6---6-6-6----|
-4-4-4-4-4-4-4---6-6-6----|


------------------------------------------------|
------------------------------------------------|
-------0-----------------------0--------0---0---|
-----4---4--------------------------------------|     2x
---5-------5---------------8--------------------|
-3-----------3---3-h6----6---6---6-h8-8---8---8-|


------------------------------------------------|
------------------------------------------------|
----------12----0-15-12----0--------------------|
-------12----12--------------12-----------------|
----13------------------13------13--------------|
-11---------------11----------------------------|


------------------------------------------------|
------------------------------------------------|
--15-12----0----------15-12----12---------------|
-------------12-------------12----12------------|
--------13------13-------------------15---------|
--13---------------10---------------------------|


-----------------------------------|
---------12-------------12---------|
------12----12-------12---12-------|
--------------15-------------15----|
---15--------------13--------------|
-13--------------13----------------|


------------------------------------------------|
------------------------------------------------|
----------12----0-15-12----0--------------------|
-------12----12--------------12-----------------|  2x
----13------------------13------13--------------|
-11---------------11----------------------------|

-----------------------------------|
---------12-------------12---------|
------12----12-------12---12-------|
--------------15-------------15----|    2x
---15--------------13--------------|
-13--------------13----------------|


------------------------------------|
------------------------------------|
------------------------------------|
------------------------------------|
---------------8-10-----------------|
-6-------------6--8---------3-------|


------------------------------------|
------------------------------------|
------------------------------------|
------------------------------------|
---------------------8-10-----------|
-3-6-----------------6--8-----------|


-----------------6-6-6----|
-----------------6-6-6----|
-----------------7-7-7----|
-6-6-6-6-6-6-6---8-8-8----|
-6-6-6-6-6-6-6---6-6-6----|
-4-4-4-4-4-4-4---6-6-6----|


----------------------------|
----------------------------|
----------------------------|
-6-6-6-6-6-6-6-6-6-6-6-6----|
-6-6-6-6-6-6-6-6-6-6-6-6----|
-4-4-4-4-4-4-4-4-4-4-4-4----|


-10---10---10-10--------13~~~13~~~13-13---------|
-----------------13-11------------------13--11--|
------------------------------------------------|
------------------------------------------------|
------------------------------------------------|
------------------------------------------------|


----------------------------|
----------------------------|
-12-12-12-10-12-14-10-12-14-|
----------------------------|
----------------------------|
----------------------------|


----------------------------|
----------------------------|
-12--12--12-10-12-----------|
----------------------------|
----------------------------|
----------------------------|


-13-10----13-10----13-10----|
-------11-------11-------11-|
----------------------------|
----------------------------|    2x
----------------------------|
----------------------------|


------------------------------------------|
-10--11-11-10-11-10-11-13-11-10-----------|
--------------------------------10-12-----|
------------------------------------------|
------------------------------------------|
------------------------------------------|


-15-10----15-10----15-10----|
-------13-------13-------13-|
----------------------------|
----------------------------|   2x
----------------------------|
----------------------------|


-13-10----13-10----13-10----|
-------11-------11-------11-|
----------------------------|
----------------------------|
----------------------------|
----------------------------|


----------------------------------|
10-11-10----10-13-11-10-----------|
---------12-------------12~~~~~~~-|
----------------------------------|
----------------------------------|
----------------------------------|


-----------------------------|
-----------------------------|
12~~~~~~~~~~~~~~~~~~~~~~~~~~~
-----------------------------|
-----------------------------|
-----------------------------|


-----------------------------|
-----------------------------|
14~~~~~~~~~~~~~~~~~~~~~~~~~~~
-----------------------------|
-----------------------------|
-----------------------------|


-----------------------------|
-----------------------------|
15~~~~~~~~~~~~~~~~~~~~~~~~~~~
-----------------------------|
-----------------------------|
-----------------------------|


-----------------------------|
-----------------------------|
17---------------------------|
-----------------------------|
-----------------------------|
-----------------------------|


-15-15-15-15-15-15-15-15-15-15-15-15-|
-------------------------------------|
-------------------------------------|
-------------------------------------|
-------------------------------------|
-------------------------------------|

~~~~~~~~~~~~~~~~~~~~~~~~~~~~~~~~~~~~~~~
15-------------------------------------|
---------------------------------------|
---------------------------------------|
---------------------------------------|
---------------------------------------|
---------------------------------------|


all done and finally sorry if thats a long song thats just how they made it
                       good luck and rock hard
            
Hard to play? Try these video lessons and learn fast. | Correct




comments powered by Disqus
↑ Back to top | Tablatures and chords are parodies/interpretations of the original songs. You may use it for private study, scholarship, research or language learning purposes only