>
 >
Lost Realist 1

Lost Realist 1 Guitar Tabs

Trapt - Lost Realist 1 chords, tabs, tablatures, lyrics

Guitar lessons | Add/correct | Request | Top 50 tabs Artists:  A B C D E F G H I J K L M N O P Q R S T U V W X Y Z 0-9

Lost Realist 1 Guitar Tabs – Trapt

CD, Sheet music, Poster

Do you like Lost Realist 1? Share with your friends now
Bass TabsTabsTabs v2
-------------------------------------------------------------------------------
                             Lost Realist - Trapt
-------------------------------------------------------------------------------

Tuning:EADGBe

        Hey whats up...Heres a tab from one of the new songs of they're new album
Someone in Control...nice song great cd i suggest you buy it if you don't have it
if you liked their old stuff then your gonna love this one...

intro/verse  guitar 1
e|---------------------------------------------------------------------------|
B|-------2-------2-------2--------------2--------------2---------------------|
G|---7-------7-------7-------7------7-------7------7------7------------------|
D|-7---7---7---7---7---7---7---7--7---7---7---7--7---7--7---7----------------|
A|---------------------------------------------------------------------------|
E|---------------------------------------------------------------------------|
 guitar 2--on verses
e|---------------------------------------------------------------------------|
B|---------------------------------------------------------------------------|
G|---6-----------------------------------------------------------------------|
D|---6-strum this behind guitar 1--------------------------------------------|
A|---4-----------------------------------------------------------------------|
E|---------------------------------------------------------------------------|

pre-chorus   i know this part isn't exactly right but it works for now... 4th
time add distortion

e|---------------------------------------------------------------------------|
B|---------------------------------------------------------------------------|
G|--10/13--10----10-10h12--10------------------------------------------------|
D|------------13---------------13--------------------------------------------|
A|---------------------------------------------------------------------------|
E|---------------------------------------------------------------------------|

chorus
e|---------------------------------------------------------------------------|
B|---------------------------------------------------------------------------|
G|---------------------------------------------------------------------------|
D|----11---8-----------------------------------------------------------------|
A|----11---8-----------------------------------------------------------------|
E|----9----6-----------------------------------------------------------------|

bridge
e|---------------------------------------------------------------------------|
B|---------------------------------------------------------------------------|
G|----------------------------------------------10----8----------------------|
D|---8-8-8-8-8-8-8-8-10-10-10-10-10-10-10-10-12----12---10-------------------|
A|---------------------------------------------------------------------------|
E|---------------------------------------------------------------------------|



| /  slide up
| \  slide down
| h  hammer-on
| p  pull-off
| ~  vibrato
| +  harmonic
| x  Mute note
===============================================================================





Comments


Popular Trapt tabs & chords
Contagious Bass Tabs
Wherever She Goes Bass Tabs
Black Rose Tabs
Headstrong 2 Tabs
Living In The Eye Of The Storm 1 Tabs
Ready When You Are 1 Tabs
Stand Up 1 Tabs
These Walls Tabs
Waiting Tabs
Sarthopor Ukulele


Song lyrics



↑ Back to top | Tablatures and chords are parodies/interpretations of the original songs. You may use it for private study, scholarship, research or language learning purposes only
© 2014 AZChords.com Contact us | Privacy policy | DMCA | Add/correct tabs | Request tabs | Top 50 tabs