» » »

Headstrong Bass tabs (ver.2)

Artists:  A B C D E F G H I J K L M N O P Q R S T U V W X Y Z # 

Headstrong Bass tabs (ver.2)

Trapt
Rating:
4/5 (3 votes)

Hard to play? Try these video lessons and learn fast.
                Tuning BEADG

Intro:
G|---------------------------------------|
D|---------------------------------------|
A|---------------------------------------|
E|---------------------------------------|
B|--55-----55-----33----33-----3--3-1-1--|

G|-------------------------------------------------------------|
D|-------------------------------------------------------------|
A|-7--7--7--7------7-7-7-7-7-7-7---5-5-5-5-----3-3-3-3-3-3-3---|
E|-------------------------------------------------------------|
B|-------------------------------------------------------------|

Verse:
G|---------------------------------------------------------------|
D|---------------------------------------------------------------|
A|-7--7--7--7-------7-7-9-10-9-7-9----5-5-5-5-----3-3-3-3-3-3-3--|
E|---------------------------------------------------------------|
B|---------------------------------------------------------------|

G|-------------------------------------------------------------|
D|-------------------------------------------------------------|
A|-7--7--7--7------7-7-7-7-7-7-7---5-5-5-5-----3-3-3-3-3-3-3---|
E|-------------------------------------------------------------|
B|-------------------------------------------------------------|


Pre-Chorus: I see your fantasy....
G|--------------------------------------------------------------|
D|--------------------------------------------------------------|
A|-7--7---------7--------7-----5----5---3----3--0--3--3--3--0---|
E|--------------------------------------------------------------|
B|--------5-----------------------------------------------------|

G|---------------------------------------------------------------------------|
D|---------------------------------------------------------------------------|
A|-7-----------7--------7------------7--------------5------------------------|
E|---------------------------------------------------------------------------|
B|------5-----------5--------5---5--------------3--------3-----1-1-1-1-1-1-1-|

bass silent "Motives inside........


Fill: Decisions to hide...
G|---------------------------------|
D|---------------------------------|
A|---------------------------------|
E|---------------------------------|
B|--------------------------x--1.--|


Chorus:
G|---------------------------------------|
D|---------------------------------------|
A|---------------------------------------|
E|---------------------------------------|
B|--55-----55-----55----33----33-----3p0-|

G|---------------------------------------------------|
D|---------------------------------------------------|
A|---------------------------------------------------|
E|----------------3----------------------------------|
B|--5-5-5-5-5-5-5----1--1-1-1-3--3-3-3-0-3-3---------|

G|------------------------------------------------|-------------|
D|------------------------------------------------|-------------|
A|------------------------------------------------|-------------|
E|------------------------------------------------|-------------|
B|--5--5-555-55-5-5-0---1--1-1-x-8-/---3-3---5~---|----3----0-1-|

Bridge:
G|-----------------------------------------------------------|
D|-----------------16----------------------------------------|
A|-14-14-14-14--------14-14-14-14-14-14---12-12-12-12--------|
E|-----------------------------------------------------------|
B|-----------------------------------------------------------|

G|-----------------------------------------------------------|
D|----14-----------------------------------------------------|
A|-12-----12-12-12-12-12---/-7--7--7--7------7-7-7-7-7-7-7---|
E|-----------------------------------------------------------|
B|-----------------------------------------------------------|

G|-----------------------------------------------------------|
D|-----------------------------------------------------------|
A|-/--5--5--5--5--------/-5-5-5-5-5-5-5----------------------|
E|-----------------------------------------------------------|
B|-----------------------------------------------------------|

Outro:
G|---------------------------------------|
D|---------------------------------------|
A|---------------------------------------|
E|---------------------------------------|
B|--55-----55-----55----33----33-----3p0-|
            
Hard to play? Try these video lessons and learn fast. | Correct




comments powered by Disqus
↑ Back to top | Tablatures and chords are parodies/interpretations of the original songs. You may use it for private study, scholarship, research or language learning purposes only