» » »

Trapt, Echo Tabs (ver.3)

Artists:  A B C D E F G H I J K L M N O P Q R S T U V W X Y Z # 

Echo Tabs (ver.3)

Trapt Tabs
 Rating:
4/5 (17 votes)
Echo lessons Tabs too difficult? Try these video lessons and learn fast
1
                
THIS SONG IS FAIRLY SIMPLE TO PLAY.  I HAVE PLAYED IT BOTH TUNED TO E AND
D-FLAT.  SOUNDS GOOD BOTH WAYS.  ANYWAY, LISTEN TO THE SONG AND PLAY ALONG WITH
IT.  THERE ARE TWO GUITAR PARTS IN THIS SONG.

INTRO

E-------------------------*12-|    *12 HARMONIC AT THE END OF INTRO ONLY
B-----------------------------|
G-----------------------------|    (INTRO HAS A CLEAN SOUND)
D--------7--------------------|
A--7--9--5----7--9--4---------|
E--5--7-------5--7--2---------|

 "I'll run away with you..."
Gtr 1
E-----------------------|
B-----------------------|
G--6--------------------|   
D--7-(16x)---6----------|  (THIS PART IS REPEATED 2x)
A--5---------7-(16x)----|
E------------5----------|

Gtr 2
E----------------------|
B----------------------|
G--11--12--14--12--11--|       (REPEAT A FEW TIMES)
D----------------------|
A----------------------|
E----------------------|



CHORUS

Gtr 1
E----------------------------------------------|
B----------------------------------------------|
G--------7---7-7---7---------------------------|
D--7--9--7---7-7---7------7--9--4---4-4---4----|
A--7--9--5---5-5---5------7--9--4---4-4---4----| (AT END LET RING)
E--5--7-------------------5--7--2---2-2---2----|

Gtr 2
E----------------------------------------------|
B----------------------------------------------|
G--------8---8-8---8---------------------------|
D--------9---9-9---9------------4---4-4---4----|
A--7--9--7---7-7---7------7--9--4---4-4---4----| (AT END LET RING)
E--5--7-------------------5--7--2---2-2---2----|


VERSE

E----------------------------------------------------|
B----------------------------------------------------|
G--13h14--14-14-13-13-13-13--11h13-13-13-11-11-11-11-|  (REPEAT DURING VERSE)
D----------------------------------------------------|
A----------------------------------------------------|
E----------------------------------------------------|


PRE-CHORUS  "Close my eyes..."
(Distortion)
Gtr 1
E--------------------------------------|
B--------------------------------------|
G--------6-6-6-6-6---------6-6-6-6-6---|
D--------7-7-7-7-7---------7-7-7-7-7---|
A--7--9--5-5-5-5-5---7--9--5-5-5-5-5---|
E--5--7--------------5--7--------------|

Gtr 2
E----------------------------|
B----------------------------|
G--4/6--6-6--6/8-8-8-8-8-----|  (REPEAT DURING PRE-CHORUS)
D--5/7--7-7--7/9-9-9-9-9-----|
A--3/5--5-5--5/7-7-7-7-7-----|
E----------------------------|

"Asking why..."

Gtr 1
E-----------------------|
B-----------------------|
G--6--------------------|   
D--7-(16x)---7----------|  (THIS PART IS REPEATED 2x)
A--5---------7-(16x)----|
E------------5----------|

Gtr 2
E----------------------|
B----------------------|
G--11--12--14--12--11--|       (REPEAT A FEW TIMES)
D----------------------|
A----------------------|
E----------------------|


REPEAT CHORUS THEN RE-START WITH THE VERSE SECTION

FAST PART AFTER SECOND CHORUS
Gtr 1
E------------------------------------------------|
B------------------------------------------------|
G--11h12p11--14p11--(3x then)--14--12--11--(5x)--|
D------------------------------------------------|
A------------------------------------------------|
E------------------------------------------------|


OUTRO

E----------------|
B----------------|
G----------------|
D---7---9---4----|
A---7---9---4----|
E---5---7---2----|
   PM  PM   LET RING


THATS IT, ENJOY!
            
Submit corrections

comments powered by Disqus
↑ Back to top | Trapt Tabs for Echo. Lyrics for acoustic guitar and electric guitar. 1 Tablatures and chords are parodies/interpretations of the original songs. You may use it for private study, scholarship, research or language learning purposes only