» » »

Train, Hey Soul Sister Tabs (ver.1)

Artists:  A B C D E F G H I J K L M N O P Q R S T U V W X Y Z # 

Hey Soul Sister Tabs (ver.1)

Train Tabs
 Rating:
4/5 (4 votes)
Hey Soul Sister lessons Tabs too difficult? Try these video lessons and learn fast
1
                -------------------------------------------------------------------------------
-------------------------------------------------------------------------------
(for any suggestions)

Tuning: Standard



INTRO

e|---------------------------------------------------------------------------|
B|-9-7----7-9--------7-9-----------------------------------------------------|
G|------9-----9-6--9-----9-6-------------------------------------------------|
D|---------------------------------------------------------------------------|
A|---------------------------------------------------------------------------|
E|---------------------------------------------------------------------------|

1ST VERSE

e|---------------------------------------------------------------------------|
B|---9-9-9--7-9-10-9-7---9-9-9--7-9-10-9-7---9------10-9-7-------------------|
G|---------------------9-------------------9---9--9--------9-8---8-9-6-------|
D|-9-----------------------------------------------------------9-------------|
A|---------------------------------------------------------------------------|
E|---------------------------------------------------------------------------|
                   
e|---------------------------------------------------------------------------|
B|---9------7-9-10-9-7---9------7------10-9-7---9------10-9-7----------------|
G|-----9---------------9---9--9---6-----------9---9--9--------9-8---8-9-6----|
D|-9-----9---------------------------9----------------------------9----------|
A|---------------------------------------------------------------------------|
E|---------------------------------------------------------------------------|

CHORUS 

e|---------------------------------------------------------------------------|
B|-12-9-7----12-12-9-9-7------7--9----9--------9-9-9-9--9--------------------|
G|--------9--------------9--9-----6-9---6-9--9------------6-9----------------|
D|---------------------------------------------------------------------------|
A|---------------------------------------------------------------------------|
E|---------------------------------------------------------------------------|

e|---------------------------------------------------------------------------|
B|-12-9-7----12-12-9-9-7-7---7-9-----7---------------------------------------|
G|--------9----------------9-----6-9----9-9----------------------------------|
D|---------------------------------------------------------------------------|
A|---------------------------------------------------------------------------|
E|---------------------------------------------------------------------------|

INTRO
VERSE 2(same as VERSE 1)
CHORUS(the same)
3RD CHORUS (the same)


My first tab hope it's OK hehe. Enjoy:)
************************************

| /   slide up
| \   slide down
| h   hammer-on
| p   pull-off
| ~   vibrato
| +   harmonic
| x   Mute note
| b   Bend
| pb  Pre-bend
| br  Bend release
| pbr Pre-bend release
| brb Bend release bend

************************************
            
Submit corrections

comments powered by Disqus
↑ Back to top | Train Tabs for Hey Soul Sister. Lyrics for acoustic guitar and electric guitar. 1 Tablatures and chords are parodies/interpretations of the original songs. You may use it for private study, scholarship, research or language learning purposes only