» » »

Tose Proeski, Cija Si Chords (ver.1)

Artists:  A B C D E F G H I J K L M N O P Q R S T U V W X Y Z # 

Cija Si Chords (ver.1)

Tose Proeski Tabs
 Rating:
4.5/5 (8 votes)
Cija Si lessons Tabs too difficult? Try these video lessons and learn fast
                Hallo, my name is Vladimir, Im from Serbia.
...very famous song of Tose.




                 Tose Proeski - Cija si



Intro:

  Em            Am B7         Em C          Am      B7         Em
e|-----7-7h8p7p5h8---5-5h7p5p3h7---3-3h5p3p2-5-3-2-0-----5h7p5p3----|
B|---------------------------------------------------4--------------|
G|------------------------------------------------------------------|
D|------------------------------------------------------------------|
A|------------------------------------------------------------------|
E|------------------------------------------------------------------|

  Em        Am B7         Em C          Am      B7         Em
e|-----5/7-5-8---5-5h7p5p3h7---3-3h5p3p2-5-3-2-0-----2h3p2p0--------|
B|-----------------------------------------------4------------------|
G|------------------------------------------------------------------|
D|------------------------------------------------------------------|
A|------------------------------------------------------------------|
E|------------------------------------------------------------------|


Em
Ponovo si nocas mila
          Am            C
Lagala da nisi bila s njim
      B7  Em
Ja to osetim.
Em
Ponovo su usne tvoje
           Am
Drhtale ko da se boje
 C       B7    Em
Da ti ne oprostim


            Am
Zasto ti je to
                        B7
Trebalo zar ni si mogla ti

Priznati



Em             Am
Jos su ti usne umorne
D                 G
I sve sto kazes znam da nije
Em              Am
Jos su ti suve cipele
D                G
Napolju znam da kisa lije
Em              Am
Jos su ti vreli obrazi
B7              C
U oku sjaj ne prolazi
Am              B7       Em
Jos ti na licu pise cija si
      Am  B7
Samo moja ni si


Jos su ti usne umorne
I sve sto kazes znam da nije
Jos su ti suve cipele
Napolju znam da kisa lije
Jos su ti vreli obrazi
U oku sjaj ne prolazi
Jos ti na licu pise cija si


(Chords from chorus)

...in second verse fingerpicking like this:


     Em   Em/F# Em/G Am   C    B7   Em
e|--------------------------------------0------|
B|------0----0----0----1----1----0-----0---0---|
G|-----0----0----0----2----0----2-----0---0----|
D|----2----2----2----2----2----1-----2---2-----|
A|------------------0----3----2-----2----------|
E|---0----2----3-------------------0-----------|


Em         Em/F#
Uzalud mi krijes lice
Em/G        Am
Znam te oci izdajice
  C        B7  Em
Sve si odglumila
Em       Em/F#
Isprljana poljupcima
Em/G      Am
Otrovana dodirima
  C         B7  Em
Znam da si lagala



Zasto ti je to
Trebalo zar ni si mogla ti
Priznati


Jos su ti usne umorne
I sve sto kazes znam da nije
Jos su ti suve cipele
Napolju znam da kisa lije
Jos su ti vreli obrazi
U oku sjaj ne prolazi
Jos ti na licu pise cija si

Samo moja ni si

Jos su ti usne umorne
I sve sto kazes znam da nije
Jos su ti suve cipele
Napolju znam da kisa lije
Jos su ti vreli obrazi
U oku sjaj ne prolazi
Jos ti na licu pise cija si


SOLO with chords from chorus


CHORUS 2X

INTRO


Used chords:

        EADGBe
Em------022000
Am------x02210
B7------x21202
C-------x32010
D-------xx0232
Em/F#---222000
Em/G----322000
            
Submit corrections

comments powered by Disqus
↑ Back to top | Tose Proeski Chords for Cija Si. Lyrics for acoustic guitar and electric guitar. Tablatures and chords are parodies/interpretations of the original songs. You may use it for private study, scholarship, research or language learning purposes only