» » »

Somewhere Over The Rainbow Chords (ver.1)

Artists:  A B C D E F G H I J K L M N O P Q R S T U V W X Y Z # 

Somewhere Over The Rainbow Chords (ver.1)

Tori Amos
Rating:
0/5 (0 votes)

Tabs too difficult? Try these video lessons and learn fast.
                Tori Amos : somewhere over the rainbow (key of A) transposed to G

Capo 2nd fret to play in A



G          Bm           (G)
Somewhere over the rainbow

C            G    Em
    Way up high
C            G           Em
There's a    land that I heard of
Am        D7     G  
Once in a lullaby


G         Bm           (G)
Somewhere over the rainbow
C             G    Em
    Skies are blue
C       G               Em      Am
And the dreams that you dare to (dream)
       D7           G
Really do come true


G                   
Some day I'll wish upon a star
    F#7                              Bm      D7
And wake up where the clouds are far behind me
      G                  
Where troubles melt like lemondrops
 F#7           
Away above the chimney tops
       Bm           Am    D7
That's where you'll find (me)

G         Bm           
Somewhere over the rain(bow)
C             G    Em
    Bluebirds fly
C         G        Em
Birds fly over the rainbow
Am           D7           G 
Why     , oh why can't I?


     G                           F#7                      Bm      

e|--------------------------------------------------------2-------2--------|
B|---3----0--3--0--3--0--3--0--3--2--5--2--5--2--5--3--2--3-3-----3-3------|
G|---0----0-----------0-----------3-----------3-----------4---4---4---4----|
D|---0----0-----------0-----------2-----------2-----------4-----4-4-----4--|
A|---2----2-----------2-----------4-----------4-----------2-------2--------|
E|--------3-----------------------2-----------2----------------------------|

       D7

e|-----2----------2-----|
B|-----1--1-------1-----|
G|-----2----2-----2-----|
D|-----0-------0-(1)----|
A|----------------------|
E|----------------------|



      G                  
Where troubles melt like lemondrops
 F#7           
Away above the chimney tops
       Bm           Am   D7 
That's where you'll find me

G         Bm       
Somewhere over the rainbow
C             G    Em
    Bluebirds fly
C         G        Em
Birds fly over the rainbow
Am           D7        G  
Why     , oh why can't I?


      Bm    C       G
MMMM  MMMM   mm
            
Tabs too difficult? Try these video lessons and learn fast.


comments powered by Disqus
↑ Back to top | Tablatures and chords are parodies/interpretations of the original songs. You may use it for private study, scholarship, research or language learning purposes only