» » »

Crucify Bass tabs (ver.1)

Artists:  A B C D E F G H I J K L M N O P Q R S T U V W X Y Z # 

Crucify Bass tabs (ver.1)

Tori Amos
Rating:
0/5 (0 votes)

Hard to play? Try these video lessons and learn fast.
                Tempo: 83 bpm

\ = Slide down


Every finger in the room...
G-------------------------------------------|
D-6-----8-----4---6-----6-----8-----4 Play--| 2x
A-------------------------------------------|
E-------------------------------------------|

Ive been waiting...
G--------------------------------------------------------|
D--------------------------------------------------------|
A-2------------------------------------------------------|
E-------2-----4-----2--2--0------2-----4-----8-9--0----2-|


Ive been raising...
G-----------------------------------------|
D-----------------------------------------|
A-2---------------------------------------|
E-------2-----4----4--2--1----1----0----0-|

Why do we...
G---------------------------------------|
D-------------------------------  Play--| 3x
A---------------------------------------|
E-4-----9----0-0--2-----9----2-2--------|

Crucify myself...
G----------------------------------------|
D----------------------------------------|
A----------------------------------------|
E-4-----9----0-0--2-----9------12-----\\-|

Chains...
G---------------------------------|
D-------------------------  Play--| 2x
A---------------------------------|
E-4-----7-----0-----0-0--9--------|

Got a kick for a dog...
G-------------------------------------------|
D-6-----8-----4---6-----6-----8-----4 Play--| 2x
A-------------------------------------------|
E-------------------------------------------|

Ive been looking...
G--------------------------------------------------------|
D--------------------------------------------------------|
A-2------------------------------------------------------|
E-------2-----4-----2--2--0------2-----4-----8-9--0----2-|

Ive been raising...
G-----------------------------------------|
D-----------------------------------------|
A-2---------------------------------------|
E-------2-----4----4--2--1----1----0----0-|

Why do we...
G---------------------------------------|
D-------------------------------  Play--| 3x
A---------------------------------------|
E-4-----9----0-0--2-----9----2-2--------|

Crucify myself...
G----------------------------------------|
D----------------------------------------|
A----------------------------------------|
E-4-----9----0-0--2-----9------12-----\\-|

Chains...
G---------------------------------|
D-------------------------  Play--| 2x
A---------------------------------|
E-4-----7-----0-----0-0--9--------|

Please believe...
G--------------------------|
D--------------------------|
A------------------  Play--| 4x
E-4-----6---7-----2--------|

Looking for a savior...
G--------------------------------------------------------|
D--------------------------------------------------------|
A-2------------------------------------------------------|
E-------2-----4-----2--2--0------2-----4-----8-9--0----2-|

Ive been raising...
G-----------------------------------------|
D-----------------------------------------|
A-2---------------------------------------|
E-------2-----4----4--2--1----1----0----0-|

Why do we...
G---------------------------------------|
D-------------------------------  Play--| 3x
A---------------------------------------|
E-4-----9----0-0--2-----9----2-2--------|

Crucify myself...
G----------------------------------------|
D----------------------------------------|
A----------------------------------------|
E-4-----9----0-0--2-----9------12-----\\-|

Chains...
G---------------------------------|
D-------------------------  Play--| 8x
A---------------------------------|
E-4-----7-----0-----0-0--9--------|

G--------|
D--------|
A--------|  Finished!
E-0-0--4-|
            
Hard to play? Try these video lessons and learn fast. | Correct




comments powered by Disqus
↑ Back to top | Tablatures and chords are parodies/interpretations of the original songs. You may use it for private study, scholarship, research or language learning purposes only