>
 >
Sabihin Mo Na

Sabihin Mo Na Guitar Tabs

Top Suzara - Sabihin Mo Na chords, tabs, tablatures, lyrics

Guitar lessons | Add/correct | Request | Top 50 tabs Artists:  A B C D E F G H I J K L M N O P Q R S T U V W X Y Z 0-9

Sabihin Mo Na Guitar Tabs – Top Suzara

CD, Sheet music, Poster

Do you like Sabihin Mo Na? Share with your friends now
ChordsChords v2Chords v3Chords v4Chords v5TabsTabs v2Ukulele
  
Intro:
(Bass gtr.)  D9(Electric gtr.w/distortion)   G5
E:---------|-0---0-------0-----------0------|3---3-------3------------|
B:---------|-3---3---2---3-----------3------|3---3---2---3-----------3|
G:---------|-2---2---2---2-----------2------|0---0---0---0-----------0|
D:---------|-0---0---x---0-----------0------|0---0---0---0-----------0|
A:---------|---------4-------------------0-0|x---x---4---x-----------x|
E:-7\------|--------------------------------|3---3---3---3-----------3|

        F#m(7)                  D/F#    Em7    
|-----|-------------2---------------|---0----------------------------|
|-3-3-|-----5---3---5-----------3--\|---0----------------------------|
|-0-0-|-----2-------2---------------|---0----------------------------|
|-0-0-|-----2-------2-------4---0---|---0----------------------------|
|-----|-4-----------4-------4-------|---2----------------------------|
|-----|-2-----------------------2---|---0----------------------------|

                              I.Verse(Line1)
   G    D/F# Em7                D9
|--3----2----0------------|   |-0-----0-----0-0---------0-0-----|
|--3----3~~~~3------------|   |-3-------3---3-----------3-3-3-0-|
|------------4------------|   |-2-----------2-----------2---2---|
|-------------------------|   |-0-----------0-----------0-------|
|--------------------5---5|   |---------------------------------|
|2-3----2----0------------|   |---------------------------------|
                                       Gus tokong     mag pa li

 Bm          G           D5      A       (sus)           
|2-----2-----3--------------------------------------------------|
|3-----3-----3---------------------------2h3-------------2h3---0|
|4---4-4-4---0-------0-0-7---7-7-2---2-2-2---2------------------|
|4---4---4-0-0-------0-0-7---7-7\2---2-2-----2------------------|
|2-------2-0-x-------x-x-5---5-5-0---0-------0---------------0--|
|------------3-------3------------------------------------------|
 wa  nag  sa yo                             ngunitdi  kina   ka

 Em(7add9)    
|2-2-2-2-2---0-------0-0-0------|
|3-3-3-3-3---0-------0-0-3---0-0|
|0---0---0---0-------0---0---0-0|
|x-----------x------------------|
|2-----------2------------------|
|0-----------0------------------|
 u sap

(Repeat chord pattern for Line2)
I.Line2: Di inaasahang diringgin mo,
       nakatingala sa ulap

                                  Refrain:                                
 Em(7add9)                        Bm7
|2-2-2-2-2---0-----------0-0-0--||-------------------------------|
|3-3-3-3-3---0-----------0-0-0-0||3-----------3-----------3------|
|0---0---0---0-----------0---0-0||2-----------2-----------2------|
|x-----------x------------------||4-----4-----4-----------4------|
|2-----------2------------------||2-------2---2-------2---2---0-0|
|0-----------0------------------||-------------------------------|
 u  lap                          |     Alam  kong na sak tan  na |
                                 |PM            .                |
                                /|------------------------------0|
                               / |--------------3---------3------|
             (with distortion)/  |--------------4-------x-4------|
                              \  |----x-x-4-----------x---4------|
                               \ |----x---2-----------x---2------|
                                \|-------------------------------|

 F#m7                            G
|2-----2-----------------2-------3-----------3-----------3------|
|5-----5-----5-----------2---2-2-3-----3-----3-----------3------|
|2-----2-----2-----------2---2-2-0-----0-----0-----------0------|
|2---------x-2-----------2-------0-------0---0-----------0---0--|
|4-------x-x-4-----------4-------x-----------------------x-----0|
|2-------x---2-------2---2-------3-----------------------3------|
|    naman kita                         ngu nitdi   ko   na  man|
|PM                                            .                |
|---------------------------------------------------------------|
|---------------------------------------------------------------|
|----x---2---------------------------x---2-----2----------------|
|----x-------------------4-----4-----x---5-----5---------5------|
|--------------------x---4---4-4---------------------x-x-5------|
|--------------------x---2---2-2---------------------x-x-3------|

             
 D9          A                   Em7
|0-----0-------------------------0-----0-0---0-----------0|
|3-----3---0-2-----------2h3-----3-----3-3---3-----------3|
|2---2---2-0-2-----------2-------0-----0-0---0-----------0|
|0-------0---2-------------------2-------2---2-----------2|
|------------0---------0---------2-----------2-----------2|
|--------------------------------0-----------0-----------0|
|   sina  sadya                       hindinghindi   nama |
|            PM_______                         .          |
|---------------------------------------------------------|
|----------------------------------------5-----5-----x---5|
|----------------------------------------7-----7-----x---7|
|---------------------------------------------------------|
|------------0---0---0-0-0--------------------------------|
|----------------------------3-2-0------------------------|


  F#m7                    B9add7  G                               GM7
|-2-----------2-----------2-----0-3-----3-----3-------------------2-|
|-2-----------2-----------2-------3-----3-3---3-----------3-------3-|
|-2-----2-----2-----------2-------0-----------0-----------0-------0-|
|-2---------4-2-----------4-------0-----------0-------------------0-|
|-4-----------4-----------2-------x-----------x-------2-------0---x-|
|-2-----------2-------------------3-----------3-------------------3-|
|uu   lit  sinta                  sa   na'y  maniwa   la      ka    |
|     PM                                                            |
|-------------------------------0-----------------------------------|
|-------------------------------0-3-----3-3-------3---------------3_|
|---------2-------------x---------0-------0-------0---------------0_|
|-----x---2-----------x-x-4---------------5-------5---------------5_|
|-----x---4-----------x---2-----------------------------------------|
|-----x---2-----------x---2-----------------------------------------|



|-----------------------------|\
|-----------------------------| \
|-----------------------------|  \(Bass gtr.)
|-------------------7--/11\---|  /
|-----------------------------| /
|-----------------------------|/
|            Sabi hin  mo  na |
|                             |
|-----------------------------|
|____________________---------|
|____________________--x-x-x-x|
|____________________--x-x-x-x|
|----------------------x-x-x-x|
|-----------------------------|


Chorus:
  D9                              G5
|-0---0-------0-----------0------|3---3-------3------------|
|-3---3---2---3-----------3------|3---3---2---3-----------3|
|-2---2---2---2-----------2------|0---0---0---0-----------0|
|-0---0---x---0-----------0------|0---0---0---0-----------0|
|---------4-------------------0-0|x---x---4---x-----------x|
|--------------------------------|3---3---3---3-----------3|
             kunganong gus to mo                  ka hit  a

        F#m(7)                          Em7         A5          
|-----|-----------------------------|---0-----------------------------|
|-3-3-|-----5---3---5-----------3--\|---0-----------------------------|
|-0-0-|-----2-------2---------------|---0-----------------------------|
|-0-0-|-----2-------------------0---|---0-----------7-----------7-----|
|-----|-4---------------------------|---2-----------7-----------7-----|
|-----|-2-----------------------2---|---0-----------5-----------5-----|
  no'y      ga ga  win     pa  ra  lang     sa yo     Sabi hin mo na


|-0---0-------0-----------0------|3---3-------3------------|
|-3---3---2---3-----------3------|3---3---2---3-----------3|
|-2---2---2---2-----------2------|0---0---0---0-----------0|
|-0---0---x---0-----------0------|0---0---0---0-----------0|
|---------4-------------------0-0|x---x---4---x-----------x|
|--------------------------------|3---3---3---3-----------3|
               kungpa paa no mo                   na  pa  pa
        F#m(7)                          Em7                   
|-----|-----------------------------|---0-------0---------------------|
|-3-3-|-----5---3---5-----------3--\|---0-------0----------------x-x--|
|-0-0-|-----2-------2---------------|---0-------4----------------x-x--|
|-0-0-|-2---2-------2_h_4---4---0---|---0----------------------------x|
|-----|-4-------------------4-------|---2----------------------------x|
|-----|-2-----------------------2---|---0-----------------------------|
  ta       wa___________________a a  ad

   G    D/F# Em  G/D   Bm7   Asus 
|-------2----0----------------|
|--3----3----0---------3-----3|
|--0-------------0-----2-----2|
|----------------0------------|
|----------------------0h2---0|
|2-3----2----0----------------|
|                             |
|                             |
|-----------------------------|\
|----------------------3-----3| \
|----------------------2h4---2|  \(Electric gtr.)
|-----------------------------|  /
|----------------5------------| /
|-----------------------------|/

(Repeat 1st verse, refrain & chorus chord pattern 
 for 2nd Stanza with lead guitar fill-in's)

II. Ilang araw mo nang di pinapansin
    ilang araw pang lilipas
    nakatanga sa harapan ng salamin
    naghihintay ng bawat bukas
Ref.Lahat naman tayo'y nagkakamali
    sinong di nagsasala
    ngunit papaano babawi sa pagkakamali
    yan ang mahalaga 

Lead fill-in's:(with reverb and delay)
 G5          D5      A   .    Em7                      D9
|--------------------------| |--------------------------| 
|-------\5-----------------| |--8p7---------------------| 
|----------7-7/9---7~~~~h9-| |0-----9-7-----------------|  
|----------------9---------| |--------------------------| 
|--------------------------| |----------9h10p9----------| 
|--------------------------| |----------------/12-10~~--| 
 
       D5            Em7(7add9)                         Bm7
     /|-----------| |-----------------------------------------------|
    / |-----------| |------8b10-10-10~~~~10~10u87-------------------|
PM /  |------7----| |-----------------------------9-7-7-9~~~~\7~~~~~|
   \  |7/9-----7~~| |-----------------------------------------------|
    \ |----9------| |-----------------------------------------------|
     \|-----------| |-----------------------------------------------|                   

  F#m7           PM________              A (PM throughout) Em7
|-14-14\----9---------------3~~~~~~~\-| |----------------------------|
|-14-14\----10----2---2---3-----------| |----------------------------|
|-------------------4---4-------------| |7------9--------------------|
|-------------------------------------| |--9/11---9--------7-----9~~~|
|-------------------------------------| |-----------10p9-7-----------|
|-------------------------------------| |----------------------------|

 F#m7         G                                 GM7
|--------------------------------------------------------------|
|5/7-3/5----(12)----------10--------8-----8-------7-------5----|
|4/6-4/6-6____-------------------------------------------------|
|-------------9-----------7---7____\5-----5---5---4---4---2---2|
|--------------------------------------------------------------|
|--------------------------------------------------------------|

(Repeat chorus then Bridge)

Bridge:(chord pattern)  Lead fill-in: 
  E5  D5  A5  C5  B5    C5                 B5
|---|---|---|---|---|  |----------------------------------------------|
|---|---|---|---|---|  |----------------------------------------------|
|---|-7-|---|-5-|-4-|  |/12--/11--/9--/7~~~~~~~~~~/9---10b11~~~~~~~~11|
|-2-|-7-|-7-|-5-|-4-|  |-------------------------0--------------------| 
|-2-|-5-|-7-|-3-|-2-|  |----------------------------------------------|
|-0-|---|-5-|---|---|  |----------------------------------------------|
                        

|0---0---------------------------|
|----------11b12~~~~~~~~~~~------|
|~11-----------------------------|
|---------------------------/13\-|
|--------------------------------|
|--------------------------------|
Bridge(lyrics): Patawarin mo sana sinta
                di ko sinasadya

(Repeat chorus chord pattern 2 frets higher 2x) 
  E      (M7)                     A     
|-----0-------0-----------0---|-------------------------------|
|-----0---4---0-----------0---|---2-----------2---------------|
|-----1---1---1-----------1---|---2---2---2---2-----------2---|
|-2---2---1---2-----------2---|---2---2---1---2-----------2---|
|-2---2---2---2-----------2---|---0---0---0---0-----------0---|
|-0---0---0---0-----------0---|-------------------------------|

  G#m7                            F#5             B5
|-------------------------------------------------------------|
|-----6---5---6-----------------------------------------------|
|-----4-------4-----------------------------------4-----------|
|-4---4-------4-------6-----------4---------------4-----------|
|-6-----------6-------6---7______\4---------------2-----------|
|-4-----------4-------4---4______\2---------------------------|

Lead fill-in:
             E                               A                                   
|---------------------------------------------------------------|
|--------------x-7b9u7-5~~~~~7b9u7p5~~~~~7-5-----10b12u10p9~~~~~|
|---------------------------------------------------------------|
|/11\-----------------------------------------------------------|
|---------------------------------------------------------------|
|---------------------------------------------------------------|

            .       . G#m7
|--------------------------------------------------------------|
|10b12u10-----------------17b19u17--------17b19u17-------------|
|---------------11/13--------------16~~~~~----------------11-13|
|-----------9--------------------------------------14~~~~~-----|
|--------------------------------------------------------------|
|--------------------------------------------------------------|

F#5              B5
|-----------------------------------------|
|----------------10b12u10\9~~~~~10-12_____|
|13b14u13-10~~~~~-------------------------|
|-----------------------------------------|
|-----------------------------------------|
|-----------------------------------------|

E                              A                                   
|-------------------------------------------------|
|x-7b9u7-5~~~~~7b9u7p5~~~~~7-9-----10b12u10-------|
|-------------------------------------------9~~~~~|
|-------------------------------------------------|
|-------------------------------------------------|
|-------------------------------------------------|

                        .  G#m7                                    .
|-------------------------------------------------------------------|
|10b12u10-9~~~~~-----10-12-----17b19u17--------17b19u17-------------|
|---------------------------------------16~~~~~----------------11-13|
|-------------------------------------------------------14~~~~~-----|
|-------------------------------------------------------------------|
|-------------------------------------------------------------------|

 F#5               B5              D5                                A5  
|---------------------------------------------------------------------|
|x-12b14u12-10~~~~~7b9u7-5~~~~~0--------------------------------------|
|---------------------------------------------------------------------|
|--------------------------------7~~~~~6~~~~~4~~~~~2~~~~/-------------|
|--------------------------------------------------------5-----4h5p4-2|
|--------------------------------------------------------------------5|

          Am7                  E
|------------------------------0----|
|------------------------------0----|
|------------------------------1----|
|------------------------------2----|
|------------------------------2----|
|-5____p0-3b4-------3~~~~~~~~~~0----|

h  =  hammer on
p  =  pull off
/  =  slide up
\  =  slide down
x  =  dead string
b  =  bend to the next numbered fret tone
u  =  unbend to the next numbered fret tone
() =  natural harmonic
.  =  staccato effect
~~ =  vibratto effect
___=  let ring





Comments


Popular Top Suzara tabs & chords
Anna Chords
Dahil Ikaw Chords
Magpakailanman Chords
Sabihin Mo Na Chords
Sabihin Mo Na 2 Chords
Sabihin Mo Na 3 Chords
Sabihin Mo Na 1 Tabs
Anna Ukulele
Magpakailanman Ukulele
Sabihin Mo Na Ukulele


Song lyrics



↑ Back to top | Tablatures and chords are parodies/interpretations of the original songs. You may use it for private study, scholarship, research or language learning purposes only
© 2014 AZChords.com Contact us | Privacy policy | DMCA | Add/correct tabs | Request tabs | Top 50 tabs