>
 >
Mr. Golden Deal

Mr. Golden Deal Guitar Tabs

Tonic - Mr. Golden Deal chords, tabs, tablatures, lyrics

Guitar lessons | Add/correct | Request | Top 50 tabs Artists:  A B C D E F G H I J K L M N O P Q R S T U V W X Y Z 0-9

Mr. Golden Deal Guitar Tabs – Tonic

CD, Sheet music, Poster

Do you like Mr. Golden Deal? Share with your friends now
TabsTabs v2
TONIC - "Mr. Golden Deal"


Tuning on Electric/Acoustic/Slide guitar = Open D9, Capo 4th fret 
1 = E
2 = A
3 = F#
4 = D
5 = A
6 = D

I tried to redo this tab using Version 1 as a starting point to make it 
easier to follow since rhythms are tricky in this song. Please Rate or 
Comment.


Intro ('Main Acoustic Riff' starts at **)

                **
|-------------|---------------5-------|-------------------------------|
|-------------|-----0---0--0----0-----|---0---0-----------------------|
|-------------|-----3---3--3------3---|---3---3-------3--3\1----------|
|--------0----|---------0--0----------|-0---0----0----0--0----------0-|
|-2--/4___----|-------4-4-----------4-|----------4________\2-2--/4___-|
|-----------5-|(5)--------------------|-------------------------------|


|------------0---------------|--------------------------|
|----0---------0-------0-----|-------0----0-------------|
|--------0-------0---0-----0-|-------0----3-------------|
|-2------2-----------2-------|----2--2--0----------0----|
|------0-----------0-----0---|-0------------2--/4-------|
|-0--------------------------|------------------------5-|





Verse 1:

Play Main Acoustic Riff 1x to lyrics : 

"Swallow your pride, make way for the new bride"



Continue Verse 1:
|-----------------5--------|------------------------------|
|-------0---0--0-----0-----|---0---0-----------0----------|
|-------3---3--3-------3---|---3---3---------3-----3---1/3|
|-----------0--0-----------|-0---0----0----0-----0-0-0-0--|
|---------4-4------------4-|----------4--4---------4---2/4|
|-(5)----------------------|------------------------------|
"Holding your tongue                 when they call another"


|--------------0--------|----------------0-------------|
|-0---0---0-------0-----|---0---------------0----------|
|-0---------0-----------|-0--------------------0--0--0-|
|-0--2------2-------0h2-|---------0---0----------------|
|-0---------------------|-----0h2-0---0----------------|
|------------0----------|------------------------------|
"winner                                     and though there is"





Prechorus 1 (0:44)

Acoustic & Electric                * Electric only from here on
|-------------0--0-------|--------------------0--------|
|----------0-----0--0--0-|-(0)------------0------0-----|
|-------0--------------3-|-(3)----------3------------0-|
|----0-----------------2-|-(2)--------2-----2------2---|
|-2--------------------0-|-(0)-------------------------|
|------------------------|-----------------------------|
"more             to this life"





Chorus 1 - Electric only
|----------0--------------|----------3------2--0-----|
|-------------------------|-------------0----------0-|
|-1----1----1---1----1----|------1-----------------0-|
|-----------0h2-0----0----|---0-----------0------0---|
|-3----3----3---3--0-0h2--|--------------------------|
|-------------------------|--------------------------|
"Hey Mr. Golden Deal,         tell me how does she feel?"

|-----------0---------------|--------------|
|------0------0-------0-----|--------------|
|------0------------0-------|-0------------|
|---------------0h2-----0---|-0------------|
|-----------------------0h2-|-0------------|
|-0-------------------------|--------------|
                               "Shes like the wind..."



********************************************************************



Verse2 (1:05) 

  Acoustic - Each full chord is strummed reverse (high to low)
|-3---3-------3-------3-------|-3-------3------------------|
|-0-------0-------0-------0---|-----0---------0------------|
|-1---------3-------3-------3-|-------3-----1--------------|
|-0---------------------------|------------------------0---|
|-2---------------------------|-------------------2-/4-----|
|-0---------------------------|----------------------------|
|
| Electric
|-----------------------------|----------------------------|
|-0-----------3-----------0---|-------------0--------------|
|-1---------------0---------1-|---------1------------------|
|-0---------------------0-----|-----------0------------0---|
|-2-----------------0h2-------|-------------------2-/4-----|
|-0---------------------------|----------------------------|
                                         "That boy couldn't"


  Acoustic
|-0-------0---------------|----0-0------------------|
|-0---0-0---0-------------|----0-0------0-----------|
|-0---0-0-----0-0-0-0-0---|-0------0--0-------------|
|-2---2-2-----2-4-4-4-4p2-|-4------4------------0---|
|-0-----------------------|---------------2--4------|
|-0-----------------------|-----------------------5-|
|
| Electric
|--------0----------------|-----------0-------------|
|-0--------0-------0------|--------0----------------|
|-0--------------0--------|--------0----------------|
|-2----------0h2----------|-0------0------------0---|
|-0-------------------0-2-|---------------2--4------|
|-0-----------------------|-----------------------5-|
 "sail.                       He says "I've washed these" 



  Acoustic
|----------5-----5---5---5-|-5---5-5-----------------|
|----------------0---0---0-|-0---0-0-----------------|
|----------------x---x---x-|-------3---3-------------|
|--0---0-----0---0---0---0-|---------0----------0----|
|----4---------4---4---4---|-------------2--/4-------|
|--------------------------|-------------------------|
|
|
|----------------------3---|-----------3-------------|
|------------------------0-|-0-----------------------|
|------3-----------1-------|-------1-----------------|
|----5-----5-----0---------|--------------------0----|
|--------------2-----------|-------------2--/4-------|
|(5)-----------------------|-------------------------|
 "decks for years                  I've carried those"



  
|-0---------0---------------|----0-----0-------------|
|-0----0--0-0-0---0-------0-|------0------0-----0--0-|
|-0----0--0-0---0-0-0-0-0-3-|------0---------0-------|
|-2----2--2-----2---0-2-2---|------2---------2h4-----|
|-0-------------------------|------------------------|
|-0-------------------------|------------------------|
|
| Elec.
|-0---------0---------------|----------0-------------|
|-0-----------0-------0-----|------0------0-----0--0-|
|-0-----------------0-------|------0---------0-------|
|-2-------------0h2---------|-0----0-----------------|
|-0---------------------0h2-|------------------------|
|-0-------------------------|------------------------|
"pails                            and though there is"




Play Prechorus Again similarly (both guitars this time)










Chorus 2 (parts are repeated similarly) play this & part 2 2x

Acoustic
|-0----0---0-------------|-----------3-----3---------|
|-0----0---0-------------|-------------0------0---0--|
|-1----1-----1----1------|---------------1------1----|
|-2----2-----0h2--0------|---------------------------|
|-3----3-----3----3---3--|-2-------------------------|
|------------------------|---------------------------|
|
| Elec
|----------0-------------|-----------3-----3---------|
|-0----------------------|-------------0------0---0--|
|------1----------1------|--------1------1------1----|
|------------0h2------0--|-0----0--------------------|
|------------------------|-2-------------------------|
|------------------------|---------------------------|
|
| Dist. Slide Guitar (* no slide on 1st time, hold 10th fret)
|------------------------|---------------------------|
|-12\10*--------------10\|\5-------------------------|
|-12\10*--------------10\|\5-------------------------|
|-12\10*--------------10\|\5-------------------------|
|------------------------|---------------------------|
|------------------------|---------------------------|
1.       "Hey Mr. Golden Deal...    how does she feel?"
2. "Does she hold you in the night, does she tell you evetything's gonna be alright?"


part 2 of Chorus 2 (go back to line above for repeat)

Acoustic
|----------0---0-0-0-0-0-0-|-----0-0---0-0-0-0-0-0-0-0-0-|
|------------0-0-0-0-0-0-0-|-----0-0---0-0-0-0-0-0-0-0-0-|
|-0----0-------0-0-0-0-0-0-|-0---0-0---0-0-0-0-0-0-0-0-0-|
|-2----2-------2-2-2-2-2-2-|-2-----2-----2-2-2-2-2-2-2-2-|
|-0----0-------0-0-0-0-0-0-|-0-----0-----0-0-0-0-0-0-0-0-|
|-0----0-------0-0-0-0-0-0-|-0-----0-----0-0-0-0-0-0-0-0-|
|
|
|----------0---------------|-------------0-------0-------|
|-0----0-----0-------------|-------0-------0-----0-------|
|-0----0-------------3-----|-------0---------0---0-------|
|-2----2-------2/4---------|-0-----0-------------0-------|
|-0----0---------------0h2-|-----------------------------|
|-0----0-------------------|-----------------------------|
no slide guitar in part 2





Chorus Ending

|-0----0---0-------------|------------------------|
|-0----0---0-------------|------------------------|
|-1----1-----1----1------|------------------------|
|-2----2-----0h2--0------|------------------------|
|-3----3-----3----3---3--|-2----------------------|
|------------------------|------------------------|
|
| Elec
|------------------------|------------------------|
|------------------------|------------------------|
|------------------------|------------------------|
|-2----0h2---0h2--0------|------------------------|
|-3----3-----3----3------|-2----------------------|
|------------------------|------------------------|
|
| Dist. Slide Guitar
|------------------------|---------------------------|
|-12\10---------------10\|\5-------------------------|
|-12\10---------------10\|\5-------------------------|
|-12\10---------------10\|\5-------------------------|
|------------------------|---------------------------|
|------------------------|---------------------------|
        "Hey Mr. Golden Deal...    how does she feel?"




Bridge, Part 1 (played 2x):

Acoustic
|-----------------------|----------------------||
|---------0----------0--|-------0--------------||
|-----0-----------------|----------------------||
|-0-0-----------2-------|----------------------||
|------------4----------|-2--------------------||
|-----------------------|----------5-----------||
|
|Electric
|-----------------------|----------------------||
|---------0----------0--|-------0--------------||
|-----0-----------0-----|----1-----------------||
|-0---------------------|----------------------||
|------------4----------|-2--------------------||
|-----------------------|----------5-----------||
 "Captain, oh my captain steer the first mate true"        
 "The men they sing a song of fear Ghosts of ships who failed before"



Bridge Ending (2:31, 6/4 time)

Acoustic
|-0------0---------------------------|---------0-------0-------------------|
|---0------0-------------------0-0---|-----0-----0-------0-----------------|
|------0-----------------------1-0---|-----0-------0-------0-0-------------|
|------------4-4-4\2-0---------0-0---|---------------0-----4-4-4\2-0-0-----|
|-----------------------4\2-0--2-0---|-------------------------------4\2-0-|
|------------------------------------|-0-----------------------------------|
|
|
|------------------------------------|-----------|
|------------------------------------|-----------|
|------------------------------------|-----------|
|------------------------------------|-----------|
|------------------------------------|-----------|
|-(5)--------------------------------|-rest------|
And the caprain he is laughing                     You can't control the sea"



  Acosutic (last bar/chord is 2 beats)
|---------0------0----------------|-------------------------------|---|
|------------0-----0---0----------|-------------------------------|---|
|-----1--------1-----1---------1--|-------1--------1----0h1--1--1-|-0-|
|-0-------------------------0-----|----0--------0-------0----0--0-|-0-|
|-2----------------------2--------|-3-------2-----------0h2--2--2-|-0-|
|---------------------------------|-------------------------------|-0-|
|
| Electric
|-0-------------------------------|-------------------------------|---|
|-0-------------------------------|-------------------------------|---|
|-1----------------------------1--|-------1--------1----0h1--1--1-|-0-|
|---------------------------0-----|----0--------0-------0----0--0-|-0-|
|------------------------2--------|-3-------2---------------------|---|
|---------------------------------|-------------------------------|---|
           "She will always do as she pleases, it's her nature to be free"




Electric Guitar Solo (Acoustic plays Verse Riff w/ ad libs):

|--------------------0-|----------------------|--------------------------|
|--------0-------0-----|-0------0---------0---|----------0--------0----0-|
|-/5--7----8-------8---|---8------/5---7----8\|--------0----0---0--------|
|----------------------|----------------------|-2/4-----------4-----2h4p2|
|----------------------|----------------------|--------------------------|
|----------------------|----------------------|--------------------------|


|-------------0---------------|--------------------------------|
|--------0----------0----0----|---0--------10---0--------0-----|
|-----------0----/5---7----8--|-8/10--10-10-------10-10----8\7-|
|-0----0----------------------|--------------------------------|
|-----------------------------|--------------------------------|
|-----------------------------|--------------------------------|


|-------0--------------------|---------0-------------|---------|
|-----0----0--0----------0---|-----0-------0---------|---------|
|-8---------8---8\3----------|-----------------------|---------|
|--------------------0-4h2-0-|-2---------------4h2h0-|-0-------|
|----------------------------|-----------------------|---------|
|----------------------------|-----------------------|---------|





Play Pre-Chorus Again





Repeat Chorus - Lyrics:

"Hey Mr. Golden Deal, tell me how does she feel?
Do you hold her in the night, do you tell her everything's gonna be alright
Hey Mr. Golden Deal, I know how you feel.
Oh, I know, I know, I know, I know etc."



Ending:

Gtr. 1:

|-0---0-0----0------------|-----------------|
|-0---0-0--0-0------------|-----------------|
|-1-----1--1---1----1-----|-1---------------|
|-2-----2------0h2--0--0--|-0---------------|
|-3-----3------3----3--0--|-2---------------|
|-------------------------|-0---------------|
|
|
|-0--------0--------------|-----------------|
|-0--------0--------------|-----------------|
|-1-----1-----1-----1--0--|-1---------------|
|-2-----2-----0h2---0--0--|-0---------------|
|-3-----3-----3-----3--0--|-2---------------|
|-------------------------|-----------------|
"Mr. Golden Deal                How does she feel?"


Key:

/ \  Slide up or down
h    hammer-on
p    pull-off





Comments


Popular Tonic tabs & chords
My Old Man Bass Tabs
Mean To Me 3 Chords
Celtic Aggresion Tabs
Daffodil Tabs
Head On Straight Tabs
Liar Tabs
Sugar 1 Tabs
Thick 1 Tabs
Love A Diamond Ukulele
Mean To Me Ukulele


Song lyrics



↑ Back to top | Tablatures and chords are parodies/interpretations of the original songs. You may use it for private study, scholarship, research or language learning purposes only
© 2014 AZChords.com Contact us | Privacy policy | DMCA | Add/correct tabs | Request tabs | Top 50 tabs