» » »

Tonic, Knock Down Walls Tabs (ver.2)

Artists:  A B C D E F G H I J K L M N O P Q R S T U V W X Y Z # 

Knock Down Walls Tabs (ver.2)

Tonic Tabs
Rating:
5/5 (1 vote)
Knock Down Walls lessons Tabs too difficult? Try these video lessons and learn fast
                Knock Down Walls- Tonic
Tuning: Standard
/= slide   ~- hold note   h= hammer on   ^&r= bend & release   v= vibrato

Intro/Chorus: lead and rhythm
e ------------------------------------|---------------------------------------------
B -10/14~---10/14~----10/14~----------|---------------------------------------------
G ------------------------------------|------------7-7-7-7-7------------------------
D -----------------------------12/14~-|-4-4-4-4-4--7-7-7-7-7--7-7-7-7-7--2-2-2-2-2--
A ------------------------------------|-4-4-4-4-4--5-5-5-5-5--7-7-7-7-7--2-2-2-2-2--
E ------------------------------------|-2-2-2-2-2-------------5-5-5-5-5--0-0-0-0-0--

Verse:
e -----------------------------------------------------------------
B -----------------------------------------------------------------
G ------------7-7-----------------------------7-7------------------
D -4-4-4-4-4--7-7--7-7-7-7-7--2-2--4-4-4-4-4--7-7--7-7-7-7-7--2-2--
A -4-4-4-4-4--5-5--7-7-7-7-7--2-2--4-4-4-4-4--5-5--7-7-7-7-7--2-2--
E -2-2-2-2-2-------5-5-5-5-5--0-0--2-2-2-2-2-------5-5-5-5-5--0-0--

Verse: listen carefully for timing
e ---------------------------------------------
B ---------------------------------------------
G ----------------------------------------11~--
D -8h9-8h9-11~-----8h9-8h9--------8h9-8h9------
A -------------------------9~------------------
E ---------------------------------------------

Pre-chorus:
e ---------------------------------------------------------
B ---------------------------------------------------------
G -7-7-7-7-7-------------------7-7-7-7-7-------------------
D -7-7-7-7-7--4-4-4-4-4-4-4-4--7-7-7-7-7--9-9-9-9-9-9-9-9--
A -5-5-5-5-5--4-4-4-4-4-4-4-4--5-5-5-5-5--9-9-9-9-9-9-9-9--
E ------------2-2-2-2-2-2-2-2-------------7-7-7-7-7-7-7-7--

Bridge: this is palm muted I think...Chords are mimicked by a mandolin
e ---------------------------------------------------------------------
B ---------------------------------------------------------------------
G ----------------------------------------------------7-7-7-7-7-7-7-7--
D -4-4-4-4-4-4-4-4--7-7-7-7-7-7-7-7--9-9-9-9-9-9-9-9--7-7-7-7-7-7-7-7--
A -4-4-4-4-4-4-4-4--7-7-7-7-7-7-7-7--9-9-9-9-9-9-9-9--5-5-5-5-5-5-5-5--
E -2-2-2-2-2-2-2-2--5-5-5-5-5-5-5-5--7-7-7-7-7-7-7-7-------------------

Solo:
e ----------------------------------------^&r---------------------------------------------
B ----------------------------------------12--10h12-10----10--------------------------v---
G -^&r-------------------------------^&r----------------11----11--9h11~--11-9----9h11-11--
D -9---7h9-7---7-------------------7h9----------------------------------------11----------
A -----------9---9-7h9~--9-7---7h9--------------------------------------------------------
E ---------------------------9------------------------------------------------------------

Chords: E5: 022xxx   F#5: 244xxx   A5: 577xxx   B5: 799xxx   D5: x577xx
            
Submit corrections

comments powered by Disqus
↑ Back to top | Tonic Tabs for Knock Down Walls. Lyrics for acoustic guitar and electric guitar. Tablatures and chords are parodies/interpretations of the original songs. You may use it for private study, scholarship, research or language learning purposes only