» » »

Tonic, Future Says Run Tabs (ver.1)

Artists:  A B C D E F G H I J K L M N O P Q R S T U V W X Y Z # 

Future Says Run Tabs (ver.1)

Tonic Tabs
 Rating:
4.2/5 (5 votes)
Future Says Run lessons Tabs too difficult? Try these video lessons and learn fast
                By jjhand 
Open G tuning (DGDGBD), capo II, everything relative to capo
Guitar 1: Acoustic
Guitar 2: Electric w/ distortion
Guitar 3: Clean Electric



Intro - Acoustic
       A   Amaj7                                
E  |-0--0--0--0-0-0-----0-0---|-0--0--0--0-0-0-----0-0---|
C# |-0--0--0--0-----0---------|-0--0--0--0-----0---------|
A  |-6--7--7--6-----6h7-------|-6--7--7--6-----6h7-------| 
E  |----------------0---------|----------------0---------| 
A  |------------------------0-|------------------------0-|
E  |--------------------------|--------------------------|
     *     *        *   *       *     *    *       * 


Verse riff (play all 4 bars 3x):  
Both Acoustic and Distorted Electric
E  |-0--0--0--0-0-0-----0-0---|-0--0--0--0-0-0-----0-0---|
C# |-0--0--0--0-----0---------|-0--0--0--0-----0---------|
A  |-6--7--7--6-----6h7-------|-6--7--7--6-----6h7-------| splits 
E  |----------------0---------|----------------0---------| to 2 parts
A  |------------------------0-|------------------------0-|
E  |--------------------------|--------------------------|

   Guitar 1
    C#sus2
e |---------x--x-------x--|---------x--x-------------||
C#|---------x--x-------x--|---------x--x-------------||
A |-6---6---x--x-6-----x--|-6---6---x--x-6----6--0-0-||
E |-4---4---x--x-4-----x--|-4---4---x--x-4----4------||
A |-4---4---x--x-4-----x--|-4---4---x--x-4----4------||
E |-----------------------|--------------------------||
  |
  | Guitar 2 (Dist Electric)
e |-0---0---x--0-0----0---|-0---0---x--0-0----0------||
C#|-3/5-5---x--5-5/7--7---|-3/5-5---x--5-5/7--7\-----||
A |-2/4-4------4-4/6--6---|-2/4-4------4-4/6--6\-----||
E |-----------------------|--------------------------||
A |-----------------------|--------------------------||
E |-----------------------|--------------------------||

Play verse 3x with these lyrics:
 
01 Holding lightly words that make you aware
02 Your head's spinning, no one knows you're not there 
03 Blankly staring, strangers call you friend


Prechorus:
Guitar 1
    C#sus2              Bsus2                A               D                 
e |---------x-------------|-0----0---0-00--0-|-0-----0-------|--0-0-0----0---|
C#|---------x-------------|-0----0---0-00--0-|-0-----0-------|--0-0-0----0---|
A |-6---6---x--6-6------4-|-4----4---4-44--4-|-0-----0-------|--0-0-0----0---|
E |-4---4---x--4-4------2-|-2----2---2-22--2-|-0-------------|---------------|
A |-4---4---x--4-4------2-|-2----2---2-22--2-|-0-------------|---------------|
E |-----------------------|------------------|---------------|---------------|
  |       "The power you own is a power that mends"
  |
  |Guitar 2
e |---------x-------------|------------------|---------------|---------------|
C#|---------x-------------|------------------|---------------|-0h1----0------|
A |-6---6---x--6-6------4-|-4----------------|-0-------------|-0------0------|
E |-4---4---x--4-4------2-|-2----------------|-0-------------|-0h2----0------|
A |-4---4---x--4-4------2-|-2----------------|-0-------------|-0------0------|
E |-----------------------|------------------|---------------|---------------|




Chorus -
    Guitar 3
e |-----7-----------|-----7-----------|----------------|-------------|
C#|---7-----8---7---|---7-----8--7-8--|-----6b7r6---4--|-2-----------|
A |-7-------------7-|-7---------------|----------------|-------------|
E |-----------------|-----------------|----------------|-------------|
A |-----------------|-----------------|----------------|-------------|
E |-----------------|-----------------|----------------|-------------|
  |
  | Guitar 2
e |-----------------|-----------------|----------------|-0-----------|
C#|-----3-----------|-3---3---3--3-3--|----------------|-0-----------|
A |-----2-----------|-4---2---0--0-0--|-6--------------|-4-----------|
E |-----0-----------|-0---0---0--4-0--|-4--------------|-2-----------|
A |-2---------------|-----------------|-4--------------|-2-----------|
E |-0---------------|(0)--------------|-4--------------|-2-----------|
    "You can't go on, no you can't even talk"

    Guitar 3
e |-----7-----------|-7---------------|----------------|-------------|
C#|---7-----8---7---|-----8-7-8---7---|-----6b7r6---4--|-2-----------|
A |-7-------------7-|---------------7-|----------------|-------------|
E |-----------------|-----------------|----------------|-------------|
A |-----------------|-----------------|----------------|-------------|
E |-----------------|-----------------|----------------|-------------|
  |
  | Guitar 2
e |-----------------|-----------------|----------------|-0-----------|
C#|-----3-----------|-3---3---3--3-3--|----------------|-0-----------|
A |-----2-----------|-4---2---0--0-0--|-6--------------|-4-----------|
E |-----0-----------|-0---0---0--4-0--|-4--------------|-2-----------|
A |-2---------------|-----------------|-4--------------|-2-----------|
E |-0---------------|(0)--------------|-4--------------|-2-----------|
    "Your future says run, but you can't even walk"



Play Verse again 

Play Chorus again



Solo (Guitar 3 with Distortion) - The Verse riff is played behind this

e |-----------------|--------5b7r5--4-|-4h5p4-2-4~------2h4p2p0-|
C#|-2--3---5b7r5--3-|-2--3------------|-------------------------|
A |-----------------|-----------------|-------------------------|
E |-----------------|-----------------|-------------------------|
A |-----------------|-----------------|-------------------------|
E |-----------------|-----------------|-------------------------|

e |-0h2--2p0-0---0h2p0--2-2/4~---|-----------------|--------5b7r5--4-|
C#|---------2---------2----------|-2-3---b6r5--3---|-2-3-------------|
A |------------------------------|-----------------|-----------------|
E |------------------------------|-----------------|-----------------|
A |------------------------------|-----------------|-----------------|
E |------------------------------|-----------------|-----------------|


e |-4h5p4p2-4~-----2h4p2p0---------|------------------------------|
C#|------------------------3h5p3p2-|-2h3p2p0--0h2p0---------------|
A |--------------------------------|---------------2--0h2-0h2-4~--|
E |--------------------------------|------------------------------|
A |--------------------------------|------------------------------|
E |--------------------------------|------------------------------|

e |-----------------|-----------------|---------------------|----------------------|
C#|-----------------|---------5b7-----|-(b7)--------5b7-5-3-|-5~---------2h3---2-2-|
A |-6-7-------------|-6-7-------------|---------------------|---------2h4----2-----|
E |---------7b9-----|-----------------|---------------------|----------------------|
A |-----------------|-----------------|---------------------|----------------------|
E |-----------------|-----------------|---------------------|----------------------|

e |----------------------------|
C#|-2-3p2p0--------------------|
A |----------------------------|
E |----------------------------|
A |----------------------------|
E |----------------------------|


Play Chorus to finish song and hold the last Chord:
e |----------------------|
C#|----------------------|
A |-4--------------------|
E |-2--------------------|
A |-2--------------------|
E |-2--------------------|


Quiet acoustic in bacground plays:
e |-0-----0-0------0-0---------|-0---0-0--0-0-0---0-0--0-0--|
C#|-2-----2-2h3----2-2h3p2p0---|-0---0-0--0-0-0---0-0--0-0--|
A |-0---0-0-0----0-0-0---------|-2-----2------0-----0-------|
E |-0--------------------------|-0-----0------0-----0-------|
A |-0--------------------------|-0-----0------0-----0-------|
E |----------------------------|----------------------------|


Key:
| /  slide up
| \  slide down
| h  hammer-on
| p  pull-off
| ~  vibrato
| x  Mute note (or rake)
| b  bend (bends with vibrato bar indicated)
| r  release bend
            
Submit corrections

comments powered by Disqus
↑ Back to top | Tonic Tabs for Future Says Run. Lyrics for acoustic guitar and electric guitar. Tablatures and chords are parodies/interpretations of the original songs. You may use it for private study, scholarship, research or language learning purposes only