» » »

Tonic, Future Says Run Bass tabs (ver.1)

Artists:  A B C D E F G H I J K L M N O P Q R S T U V W X Y Z # 

Future Says Run Bass tabs (ver.1)

Tonic Tabs
 Rating:
4.2/5 (5 votes)
Future Says Run lessons Tabs too difficult? Try these video lessons and learn fast
                Tonic - 'Future Says Run'
Standard Bass Tuning



Intro/Verse (starting at 0:05)
G|-----------------|-----------------|-----------------|------------------|
D|-----------------|-----------------|-----------------|------------------|
A|-----------------|-----------------|-4---4-4---4---4-|-(4)--4-4---4-----|
E|-5-5-5-5-5-5-5-5-|-5-5-5-5-5-5-5-5-|-----------------|----------------4-|



Verse Ending
G|-----------------|-----------------|-----------------|------------------|
D|-----------------|-------------7---|-----------------|------------------|
A|-----------------|----------/7---7-|-4---4-----4---2-|-(2)--2-----2-4---|
E|-5-5-5-5-5-5-5-5-|-5-5-5-5-5-------|-----------------|----------------4-|

G|-----------------|------------------------|
D|-----------------|------------------------|
A|--------------12-|-(12)----12h14-12-------|
E|-5--------/12----|------------------------|



Chorus
G|--------------|-----------------|-------------|--------------|
D|--------------|-----------------|-------------|--------------|
A|--------------|-----------------|-4-----------|-2------------|
E|-0--------2-4-|-5---4---2---0---|-------------|--------------|

G|--------------|-----------------|-------------|--------------|
D|--------------|-----------------|-------------|--------------|
A|--------------|-----------------|-4---------4-|-2------------|
E|-0--------2-4-|-5---4---2---0---|---------4---|--------------|




Before 2nd Verse
G|-----------------|-----------------|-----------------|------------------|
D|-----------------|-----------------|-----------------|------------------|
A|-----------------|-----------------|-4---4-4---4---4-|-(4)--4---------2-|
E|-5-5-5-5-5-5-5-5-|-5-5-5-5-5-5-5-5-|-----------------|----------0-2--4--|



Play Verse Again

Verse 2 Ending
G|-----------------|-----------------|----------------|----------------|
D|-----------------|---------7-6-4---|----------------|----------------|
A|-----------------|------/7-------7-|-4---4------4-0-|-2---2-----2----|
E|-5-5-5-5-5-5-5-5-|-5-5-5-----------|----------------|--------------4-|

G|-----------------|------------------------|
D|-----------------|------------------------|
A|--------------12-|-(12)--12--12h14p12-----|
E|-5--------/12----|------------------------|




Chorus 2
G|--------------|-----------------|-------------|-----------------|
D|--------------|-----------------|-------------|-----------------|
A|--------------|-----------------|-4-----------|-2---4-4/6-4-2---|
E|-0--------2-4-|-5---4---2---0---|-------------|-----------------|

G|--------------|-----------------|-------------|--------------|
D|--------------|-----------------|-------------|--------------|
A|--------------|-----------------|-4---------4-|-2------------|
E|-0--------2-4-|-5---4---2---0---|---------4---|--------------|



Solo Section - 
G|-----------------|-----------------|-----------------|------------------|
D|-----------------|-------------7---|-----------------|----------------4-|
A|-----------------|----------/7---7-|-4---4-----4---4-|-(4)--4---4-5-7---|
E|-5-5-5-5-5-5-5-5-|-5-5-5-5-5-------|-----------------|------------------|

G|-----------------|-----------------|-----------------|------------------|
D|-----------------|-----------------|-----------------|------------------|
A|-----------------|---------------2-|-4---4-----4---4-|-(4)--4-4---------|
E|-5-5-5-5-5-5-5-5-|-5-5-5-5-5-5-5---|-----------------|--------------2-4-|

G|-----------------|-----------------|----------------|------------------|
D|-----------------|-----7-6-4---4-6-|----------------|-----------/6-4-2-|
A|-----------------|--/7-------7-----|-4---4------4-0-|-2---2------------|
E|-5-5-5-5-5-5-5-5-|-5---------------|----------------|------------------|

G|-----------------|------------------------|
D|-----------------|------------------------|
A|--------------12-|-(12)-12-12h14p12-------|
E|-5----------12---|------------------------|


Play Chorus 2 again to end




key
| /  slide up
| \  slide down
| h  hammer-on
| p  pull-off
| ~  vibrato
| +  harmonic
| x  Mute note
            
Submit corrections

comments powered by Disqus
↑ Back to top | Tonic Bass for Future Says Run. Lyrics for acoustic guitar and electric guitar. Tablatures and chords are parodies/interpretations of the original songs. You may use it for private study, scholarship, research or language learning purposes only