» » »

Drag Me Down Tabs (ver.2)

Artists:  A B C D E F G H I J K L M N O P Q R S T U V W X Y Z # 

Drag Me Down Tabs (ver.2)

Tonic
Rating:
5/5 (1 vote)

Hard to play? Try these video lessons and learn fast.
                Tonic - "Drag Me Down"


Main Riff (starting 0:11) - Rhythm Elec. (w/ distortion)
e|--------------------------------------|--------------------------------------|
B|--------------------------------------|--------------------------------------|
G|--------------------------------------|--------------------------------------|
D|--------------------------------------|--------------------------------------|
A|-----------7---7----6---6----7---7----|-----------7---7-------------7---7----|
E|-0---0--/7--------7-------/7--------7-|-4---4--/7-------7-5---5--/7--------7-|


Verse Part 1 - play 2x

   Rhythm Elec.
e|---------------|---------------|------------------|-------------------|
B|---------------|---------------|------------------|-------------------|
G|-6-------------|-4-------------|------------------|-------------------|
D|-6-------------|-4-------------|------------------|-------------------|
A|-4-------------|-2-------------|----------7--7----|----------7--7-----|
E|---------------|---------------|-0--0--/7-------7-|-0--0--/7-------7\-|
 |
 | Clean Lead
e|---5-4----4----|-0----2--0--2--|----------0--0----|----------0--0-----|
B|--------5------|----4----------|------------------|-------------------|
G|---------------|---------------|------------------|-------------------|
D|---------------|---------------|------------------|-------------------|
A|---------------|---------------|------------------|-------------------|
E|---------------|---------------|------------------|-------------------|



Before Chorus:
   Rhythm Elec.
e|---------------|---------------|---------------|-----------------|
B|---------------|-----5---5p4---|---------------|-----------------|
G|-6-------------|-4---4---4-----|-6----6-6------|-----------------|
D|-6-------------|-4---6---6p4---|-6----6-6------|-7---------------|
A|-4-------------|-2-------------|-4----4-4------|-7---------------|
E|---------------|---------------|---------------|-5---------------|
 |
 | Clean Lead
e|---5-4----4----|-0----2--0--2--|---5-4----4----|----------5------|
B|--------5------|----4----------|--------5------|-----5-5----5----|
G|---------------|---------------|---------------|-----------------|
D|---------------|---------------|---------------|-----------------|
A|---------------|---------------|---------------|-----------------|
E|---------------|---------------|---------------|-----------------|



Chorus - play 2x
   Rhythm
e|-------0----0---|-------------------|-----------------|----------------------|
B|-------0----0---|--------------2----|-----------------|----------------------|
G|-------1----1---|-2------------2----|-6----6-------6--|-4----4-4-----4--4h6--|
D|-2-----2----2---|-2------------2----|-6----6-------6--|-4----4-4-----4--4----|
A|-2--------------|-0-----------------|-4----4-------4--|-2----2-2-----2-------|
E|-0--------------|-------------------|-----------------|----------------------|
 |
 | Lead (w/ thick Chorus & delay) 
e|----4-----4-----|-5-----5-----5-----|-----2-----2-----|-------------------|
B|------5-----5---|---5-----5-----5---|---5---5-----5---|-4-----4-----4-5---|
G|--------4-----4-|-------------------|---------4-----4-|---4-----4---------|
D|----------------|-------------------|-----------------|-------------------|
A|----------------|-------------------|-----------------|-------------------|
E|-0--------------|-------------------|-----------------|-------------------|



Play Main Riff again

Play Verse again



Chorus II: Play Chorus again, but add a third guitar part -

Guitar 3
e|-----0-------|-----0--------|----0-----2-0--|----------------|
B|-4h5-----4-2-|-4h5-----4-2--|-5-------------|-4---2----------|
G|-------------|--------------|---------------|---------4------|
D|-------------|--------------|---------------|----------------|
A|-------------|--------------|---------------|----------------|
E|-------------|--------------|---------------|----------------|


Play Main Riff




Solo (Verse Riff played by Rhythm Guitar)
e|---------------------|----------------|-quieter********---------|
B|------10--------10---|-----9----------|------------|------------|
G|-11-13--13-11------9-|-8-----8-9------|------------|-9----------|
D|---------------------|----------------|-9b11-------|------------|
A|---------------------|----------------|------------|------------|
E|---------------------|----------------|------------|------------|

e|---------------------|----------------|-quieter********---------|
B|------10--------10---|-----9----------|------------|------------|
G|-11-13--13-11------9-|-8-----8-9------|------------|------------|
D|---------------------|----------------|-6/7--------|------------|
A|---------------------|----------------|-------9----|-7----------|
E|---------------------|----------------|------------|------------|



Play 'Before Chorus' Part


Play Chorus II again 2x



Ending:

Play Main Riff with Lead part at 2:33
e|------|-0---------|-(0)--------|-----------------|---0-------------|-both----|
B|-4--0-|-----------|------------|-5-----------5---|-4---2---0-------|-guitars-| 
G|------|-----------|------------|-----6---4-------|-------------2---|---------|
D|------|-----------|------------|-----------------|-----------------|-2-------|
A|------|-----------|------------|-----------------|-----------------|-2-------|
E|------|-----------|------------|-----------------|-----------------|-0-------|


key
| /  slide up
| \  slide down
| h  hammer-on
| p  pull-off
| ~  vibrato
| b  bend note
            
Hard to play? Try these video lessons and learn fast. | Correct




comments powered by Disqus
↑ Back to top | Tablatures and chords are parodies/interpretations of the original songs. You may use it for private study, scholarship, research or language learning purposes only