>
 >
Jackets 1

Jackets 1 Guitar Tabs

Tommy Reilly - Jackets 1 chords, tabs, tablatures, lyrics

Guitar lessons | Add/correct | Request | Top 50 tabs Artists:  A B C D E F G H I J K L M N O P Q R S T U V W X Y Z 0-9

Jackets 1 Guitar Tabs – Tommy Reilly

CD, Sheet music, Poster

Do you like Jackets 1? Share with your friends now
TabsTabs v2
Tommy Reilly - Jackets
My First Tab.


Intro..
    e--x---x---x---x---x---x---x--|
    b--x---x---x---x---x---x---x--|
    g--2---7---2---7---10--10--7--|
x1  d--2---7---2---7---10--10--7--|
    a--x---x---x---x---x---x---x--|
    E--1---6---1---6---8---10--6--|

Verse..
Same as Intro but just played twice through
    e--x---x---x---x---x---x---x--|
    b--x---x---x---x---x---x---x--|
    g--2---7---2---7---10--10--7--|
x2  d--2---7---2---7---10--10--7--|
    a--x---x---x---x---x---x---x--|
    E--1---6---1---6---8---10--6--|

Pre-Chorus..
    e--x------x--x---|
    b--x------x--x---|
    g--2------7--10--|
    d--2------7--10--|
    a--x------x--x---|
    E--1------6--8---|

Chorus..

    e--x----x---x---x--6--|
    b--6----x---10--5--x--|
    g--7----7---10--5--5--|
x4  d--7----8---x---x--x--|
    a--5----8---8---3--3--|
    E--x----6---x---x--x--|

Outro..
    e-----------------------------------------------------------------------|
    b-----------------------------------------------------------------------|
    g-----------------------------------------------------------------------|
x2  d-----------------------------------------------------------------------|
    a-555555555555-0000------------------8888888888888888-33333333-10101010-|
    E------------------666666666666666666-----------------------------------|

    e------------------------------------|
    b------------------------------------|
    g------------------------------------|
    d------------------------------------|
    a--5~-----0--------8~-----3~---10~---|
    E-----------6~-----------------------|

    e------------------------|
    b------------------------|
    g------------------------|
    d------------------------|
    a--5~-----0--------------|
    E-----------6~-----------|

And end on..
    e--x---|
    b--10--|
    g--10--|
    d--10--|
    a--8---|
    E--x---|



I'm sure u can figure out the strumming pattern out by yourself ;) 
Hope that's right 
Enjoy :) 





Comments


Popular Tommy Reilly tabs & chords
Dials Chords
Gimme A Call Chords
Gimme A Call 1 Chords
Six Billion People Chords
Give Me A Call Tabs
Grab Me By The Collar Tabs
Jackets Tabs
Take Me Away For The Night Tabs
Gimme A Call Ukulele
I Dont Like Coffee Ukulele


Song lyrics



↑ Back to top | Tablatures and chords are parodies/interpretations of the original songs. You may use it for private study, scholarship, research or language learning purposes only
© 2014 AZChords.com Contact us | Privacy policy | DMCA | Add/correct tabs | Request tabs | Top 50 tabs