» » »

Footprints Tabs (ver.1)

Artists:  A B C D E F G H I J K L M N O P Q R S T U V W X Y Z # 

Footprints Tabs (ver.1)

Tommy Emmanuel
Rating:
5/5 (3 votes)

Hard to play? Try these video lessons and learn fast.
                                                    FOOTPRINTS
                          As recorded by Tommy Emmanuel
                        (From the 2006 Album THE MISTERY)

Music by Tommy Emmanuel
Arranged by Tommy Emmanuel
Upload by ..:pigiyo:..

standard tuning 
capo 4th

Gtr I (E A D G B E) 

  Q=100
 4/4
  Gtr I
  E   E E E a E E E E E   E E E E E E a E E
|-8-|-------5h7-----5-3-|-------1-----1p0---|
|---|-----5-------------|-----------------3-|
|---|---5---------5-----|-----0-------------|
|---|-7---------7-------|-----2---------2---|
|---|-------------------|---2-------2-------|
|---|-------------------|-0-------0---------|


  E E E E E E E E   E E E E E E E E
|-----------------|---------0---3-8--|
|-------1-----0-1-|-------1---1------|
|-----0-----------|-----0------------|
|---3-------3-----|---2--------------|
|-----------------|-3-------2--------|
|-1-------3-------|------------------|


  E E E a E E E a E E   E E E E E E a E E
|-------5h7-----7p5-3-|-------1-----1p0---|
|-----5---------------|-----------------3-|
|-----5---------------|-----0-------------|
|---7---------7-------|-----2---------2---|
|-0---------0---------|---2-------2-------|
|---------------------|-0-------0---------|


  E E E E E E E E   E E E E E E E E
|-------0---------|------------------||
|---------3-1-0-1-|-------------1----||
|-----0-----------|-------0---0---0--||
|---3-------------|---0h2---3--------||
|-----------------|-3----------------||
|-1-------3-------|------------------||


    E E E  E  E E E E   E E E E E E E E   E E E E  E  E E E   E E E E E E E E
||----------------0-3-|-----------------|---------------0-1-|----------------|
||o-------(1)-1h3-----|-------3---------|-------1-(1)h3---1-|-------1--------|
||------0-------------|-----0-------0---|-----0-------------|-------------2--|
||----2---------------|---0-------0-----|---2---------------|---3-3-----3----|
||o-3-----------------|-2-------2-----0-|-1--------1--------|-0-------0------|
||--------------------|-----------------|-------------------|---------------0|


  E E E E E E  E  E   E E E a E E Q  a E
|-----------1-----1-|---0----------------|
|-------1---------1-|-------4s3---1--1h3-|
|---1h3-------------|------------------2-|
|-------------(1)---|-----2--------------|
|-------------------|--------------------|
|-4-------4---------|-3---------3--------|


  E E E E E E E E   E E E E E E E S S
|-----------------|---3-------3--------|
|-------3-----1-1-|-----1-0-----0------|
|-----2-----2---0-|-----0-0-----0------|
|---0-------0-----|--------------------|
|-----------------|---------------0h2--|
|-2-------2-------|-3-------0----------|


  E E E E E E E E   E E E E E E E E   E E E E  E  E E E   E E E E E E Q
|-------------0-3-|-----------------|---------------0-1-|----------------|
|-------1-1h3-----|-------3---------|---1---1-(1)h3---1-|-------1--------|
|-----0-----------|-----0-------0---|---0---------------|-----2-------2--|
|---2-------------|---0-------0-----|-----2-------------|---3-------3----|
|-3---------------|-2-------2-----0-|-1--------1--------|-0-------0------|
|-----------------|-----------------|-------------------|----------------|


  E E E E E E  E  E   E E E a E E E  a E E
|-----------1-----1-|---0------------------|
|-------1---------1-|-------4s3---1--1h3---|
|---1h3-------------|------------------2---|
|-------------(1)---|-----2----------------|
|-------------------|----------------------|
|-4-------4---------|-3---------3--------0-|


  E E E E E E E E   E E E E E E E a E
|-----------------|-------0-----3-3s5---||
|-----3-1---0---1-|-----1---------------||
|-2-----0---0---0-|-----0---------------||
|---0---------0---|---2-------0---------||
|-----------------|-3-------2-----------||
|-2-------3-------|---------------------||


  E E E E Q  a Q    E E E E E E E E   E E E E E E E E   E E E E E E E E
|------------0h2--|-------2-------2-|-3-----------0-0-|-------0-------0--|
|-------5------3--|-------3-----3---|-3-----3-------0h|=1-----1-----1----|
|-----2-----------|-----2-----2-----|-----0-----0---0-|-----0-----0------|
|---2-------------|---0-------0-----|---0-----0-------|---2-------2------|
|-0---------------|-----------------|-------2---------|-3-------3--------|
|---------0-------|-2-------2-------|-3---------------|------------------|


  E E E E E E  E  E   E E E E E E  E  E
|-1-----------------|-------------------|
|-1-----1------1h=3-|-------3---------3-|
|-----0-------(0)---|-----2-------(1)-2-|
|---3-------3-------|---3----------0----|
|-----------------0-|-2---------2-------|
|-1-------1---------|---------0---------|


  E a E E a E E E  E  E   E E E E E E E E
|------------------0----|-----------0h5---|
|---0h2---2s3------0h=2-|-----2-2---------|
|-----2-----2---2--2----|-----2-----------|
|-------2-----3---(2)---|---2-------------|
|-0---------------------|-0-------0-------|
|-----------------------|---------------0-|


  E E E E Q  a Q    E E E E E E E E   E E E E E E E E   E E E E E E E E
|------------0h2--|-------2-------2-|-3-----------0-0-|-------0-------0--|
|-------5------3--|-------3-----3---|-3-----3-------0h|=1-----1-----1----|
|-------2---------|-----2-----2-----|-----0-----0---0-|-----0-----0------|
|-----2-----------|---0-------0-----|---0-----0-------|---2-------2------|
|---4-------------|-----------------|-------2---------|-3-------3--------|
|-2-------2-------|-2-------2-------|-0---------------|------------------|


  E E E E E E  E  E   E E E E E E E E   Q  E Q    E  E E   +E  E  E E Q  E  E
|-1-----------------|-----------------|------------------|---------------------|
|-1-----1------1h=3-|-------3-----1---|-0h=1-0h===1----0-|-(0)h1----0-0h=1-----|
|-----0-------(0)---|-----2-------1---|-0----0---------0-|-(0)------0-0--------|
|---3-------3-------|---3-------0-----|-0h=2-0h===2----0-|-(0)h2----0-0h=2-----|
|-----------------0-|-2---------------|-0----------------|---------------------|
|-1-------1---------|---------0-------|------------------|------------------0--|


  Q  E Q  E E E   +H    H
|-------------0-|-(0)---------||----|
|-0h=1-0h=1---1-|-(1)---3----o||----|
|-0----0------0-|-(0)---0-----||----|
|-0h=2-0h=2-----|-------0-----||----|
|-0-----------3-|-(3)---2----o||----|
|---------------|-------------||----|
            
Hard to play? Try these video lessons and learn fast. | Correct




comments powered by Disqus
↑ Back to top | Tablatures and chords are parodies/interpretations of the original songs. You may use it for private study, scholarship, research or language learning purposes only