» » »

Tokyo Police Club, Nature Of The Experiment Bass tabs (ver.2)

Artists:  A B C D E F G H I J K L M N O P Q R S T U V W X Y Z # 

Nature Of The Experiment Bass tabs (ver.2)

Tokyo Police Club Tabs
 Rating:
4.3/5 (6 votes)
Nature Of The Experiment lessons Tabs too difficult? Try these video lessons and learn fast
                Nature Of The Experiment Bass Tab by Tokyo Police Club,



This is my first tab submission. I use a pick for this song with a slight palm mute.
the D string and more open notes gives me better attack and tone than playing up the neck.
outro is a bit tough so you may want to improvise by using your 7th fret for the 
The run at the end is great fun - I think it's accurate.

Intro:5x
G----------------|
D-0-0000--4-4444-|
A----------------|
E----------------|

Verse 1&2:
G------------------------------------------------------------|
D-0-0000--4-4444--0-0000--4-4444-----------------------------|
A-------------------------------0000-----------2-2222--2-2222|
E------------------------------------4444-2222---------------|


G------------------------------------------------------------|
D-0-0000--4-4444--0-0000--4-4444-----------------------------|
A-------------------------------0000-----------2-2222--2-2222|
E------------------------------------4444-2222---------------|

G----------------|
D----------------|
A--2-2222--2-2222|
E----------------|

Chorus:
G----------2(ring)------------------2(ring)----------2-1----|
D--4(ring)-----------------4(ring)----------------------4-2-|
A----------------4(ring)--------------------4(ring)---------|
E-----------------------------------------------------------|

Bridge: (0:45) - 4x then to Verse 2
G----------------|
D-0-0000--4-4444-|
A----------------|
E----------------|

Outro: (1:28)
G-------------------2222--------|
D-0-0000--0-0000------------2222|
A-----------------0-------------|
E-------------------------0-----|

G-------------------2222---------|
D-0-0000--0-0000------------2-2-2|
A-----------------0--------------|
E-------------------------0------|

G-------------------2222--------|
D-0-0000--0-0000------------2222|
A-----------------0-------------|
E-------------------------0-----|x3

G-----------------2211-----11-------------|
D-0-0000--0-0000------4422---4422--0(ring)|
A--------------------------------42-------|
E-----------------------------------------|
            
Submit corrections

comments powered by Disqus
↑ Back to top | Tokyo Police Club Bass for Nature Of The Experiment. Lyrics for acoustic guitar and electric guitar. Tablatures and chords are parodies/interpretations of the original songs. You may use it for private study, scholarship, research or language learning purposes only