>
 >
In Solitude

In Solitude Bass Tabs

To Die For - In Solitude chords, tabs, tablatures, lyrics

Guitar lessons | Add/correct | Request | Top 50 tabs Artists:  A B C D E F G H I J K L M N O P Q R S T U V W X Y Z 0-9

In Solitude Bass Tabs – To Die For

CD, Sheet music, Poster

Do you like In Solitude? Share with your friends now
Bass TabsTabs
-------------------------------------------------------------------------------
                           IN SOLITUDE - To/Die/For
-------------------------------------------------------------------------------

Tuning: Standard


Main part (w/ lead guitar):
G|-----------------|
D|-----------------|
A|---6h7\4-----4---|
E|-----------------|
           (x 32)



Verse 1:
("I'm not the one to die for, don't grieve for me...")
G|---------------------------------------------------------------|
D|-------------------------------------------------6-4-----------|
A|---6h7\4-4-------------4----------4----------0-4-----2-0-2-----|
E|--------------------4--------------------------------------4---|


G|---------------------------------------------------------|
D|-------------------------------------------6-4-----------|
A|---4-------------4----------4----------0-4-----2-0-2-----|
E|--------------4--------------------------------------4---|



Pre-chorus:
("Let me die in solitude under pale grey clouds...")
Play main part x2.



Verse 2:
("My life ain't what I wanted, don't cry for me...")
G|----------------------------|
D|----------------------------|
A|-----4----------0-----------|
E|----------------------2-----| (x 2)
   (x 24)      (x 4) (x 4)



Chorus:
("I say goodbye and raindrops taste like tears...")
G|-----------------------------|
D|-----------------------------|
A|-----4-----2-----------0-----|
E|-----------------4-----------| (x 2)
    (x 7) (x 8) (x 8) (x 8)



Bridge to 2nd chorus:
("And in my final hour, as I kneel on the leaves...")
G|--------------------------------------------------|
D|--------------------------------------------------|
A|-----4----------0----------4----------0-----------|
E|--------------------------------------------2-----| (x 2)
    (x 8)      (x 8)      (x 8)      (x 5) (x 3)



Guitar solo:
G|--------------------------------------------|
D|--------------------------------------------|
A|-----4----------2---------------------------|
E|---------------------------5----------2-----| (x 4)
    (x 4)      (x 4)      (x 4)      (x 4)



Bridge to last chorus:
("Then it's really over, my earthly misery...")
G|----------------------------------------------------------------|
D|----------------------------------------------------------------|
A|---0---------------------4----------2----------0----------2-----|
E|--------------2-------------------------------------------------|



Then play the main part.



| /  slide up
| \  slide down
| h  hammer-on
| p  pull-off
| ~  vibrato
| +  harmonic
| x  Mute note
===============================================================================





Comments


Popular To Die For tabs & chords
Rimed With Frost Bass Tabs
Veiled Bass Tabs
In Solitude Tabs
Rimed With Frost Tabs
Veiled Tabs


Song lyrics



↑ Back to top | Tablatures and chords are parodies/interpretations of the original songs. You may use it for private study, scholarship, research or language learning purposes only
© 2014 AZChords.com Contact us | Privacy policy | DMCA | Add/correct tabs | Request tabs | Top 50 tabs