>
 >
In Solitude

In Solitude Guitar Tabs

To Die For - In Solitude chords, tabs, tablatures, lyrics

Guitar lessons | Add/correct | Request | Top 50 tabs Artists:  A B C D E F G H I J K L M N O P Q R S T U V W X Y Z 0-9

In Solitude Guitar Tabs – To Die For

CD, Sheet music, Poster

Do you like In Solitude? Share with your friends now
Bass TabsTabs
-------------------------------------------------------------------------------
                           IN SOLITUDE - To/Die/For
-------------------------------------------------------------------------------

Tuning: Standard


Great song and lyrics, my favorite from Epilogue!


Main lead melody (with plenty of flanger and reverb):
e|------------------------------------|
B|---/9~-----9\4~-----4/7~-----7\2~---|
G|------------------------------------|
D|------------------------------------|
A|------------------------------------|
E|------------------------------------|



Main rhytm guitar:
e|-----------------------------------------------------------|
B|-----------------------------------------------------------|
G|-----------------------------------------------------------|
D|---1-2-1-----2--2--2-----2-----2--2--2-----2-----2--2--2---|
A|---------4---4--4--4-----4-----4--4--4-----4-----4--4--4---|
E|-------------4--4--4-----4-----4--4--4-----4-----4--4--4---|
PM             .  .              .  .              .  .


e|-------------------------------------------------|
B|-------------------------------------------------|
G|-------------------------------------------------|
D|---2--2--2-----2-----2--2--2-----2-----2--2--2---|
A|---4--4--4-----4-----4--4--4-----4-----4--4--4---|
E|---4--4--4-----4-----4--4--4-----4-----4--4--4---|
PM   .  .              .  .              .  .


e|-------------------------------------------------|
B|-------------------------------------------------|
G|-------------------------------------------------|
D|---4--4--4-----4-----4--4--4-----4-----4--4--4---|
A|---4--4--4-----4-----4--4--4-----4-----4--4--4---|
E|---4--4--4-----4-----4--4--4-----4-----4--4--4---|
PM   .  .              .  .              .  .


e|--------------------------------------------------|
B|--------------------------------------------------|
G|--------------------------------------------------|
D|---4--4--4-----4-----4--4--4-----4--4---1-2-1-----|
A|---4--4--4-----4-----4--4--4-----4--4---------4---|
E|---4--4--4-----4-----4--4--4-----4--4-------------|
PM   .  .              .  .        .  .



Verse, rhytm guitar:
("I'm not the one to die for, don't grieve for me...")
("My life ain't what I wanted, don't cry for me...")
e|-------|
B|-------|
G|-------|
D|-------|
A|---4---|
E|---4---|



Verse, lead guitar (repeated twice):
("I'm not the one to die for, don't grieve for me...")
("My life ain't what I wanted, don't cry for me...")
e|------------------------------|
B|------------------------------|
G|------------------------------|
D|---------------11-------------|
A|-----9--11------------12-11---|
E|---9--------------------------| (x 3)


e|------------------------|
B|------------------------|
G|------------------------|
D|------------------------|
A|-----9-11-------11-11---|
E|---9----------9---------|



Pre-chorus:
("Let me die in solitude under pale grey clouds...")
Play main lead melody & rhytm.



Chorus, lead guitar:
("I say goodbye and raindrops taste like tears...")
e|------------------------------------------------------|
B|------------------------------------------------------|
G|---9~-----8~------------------------------------------|
D|-----------------6~------------6-----6----------------|
A|------------------------9~---------------7---6--------|
E|------------------------------------------------9-9---|



Chorus, rhytm guitar:
("I say goodbye and raindrops taste like tears...")
e|--------------------------|
B|--------------------------|
G|--------------------------|
D|---11-----9-----6-----7---|
A|---11-----9-----6-----7---|
E|----9-----7-----4-----5---| (x 2)



Bridge to 2nd chorus (repeat twice):
("And in my final hour, as I kneel on the leaves...")
e|------------------------------------------|
B|------------------------------------------|
G|------------------------------------------|
D|---11--11--11-----11--11---11---11---11---|
A|---11--11--11-----11--11---11---11---11---|
E|----9---9---9------9---9----9----9----9---|
PM    .   .          .             .


e|----------------------------------|
B|----------------------------------|
G|----------------------------------|
D|---7--7--7-----7--7---7---7---7---|
A|---7--7--7-----7--7---7---7---7---|
E|---5--5--5-----5--5---5---5---5---|
PM   .  .        .          .


e|------------------------------------------|
B|------------------------------------------|
G|------------------------------------------|
D|---11--11--11-----11--11---11---11---11---|
A|---11--11--11-----11--11---11---11---11---|
E|----9---9---9------9---9----9----9----9---|
PM    .   .          .             .


e|----------------------------------|
B|----------------------------------|
G|----------------------------------|
D|---7--7--7-----7--7---4---4---4---|
A|---7--7--7-----7--7---4---4---4---|
E|---5--5--5-----5--5---2---2---2---|
PM   .  .        .          .



Solo, lead guitar:
e|-------------------------------------------------------------|
B|---/9p7------------------------------------------------------|
G|--------8~---8b9br8------------------------------------------|
D|--------------------11~-----11-9-----------------------------|
A|---------------------------------11~---12+~-----11----9+~\---|
E|---------------------------------------------------12--------|


e|---16-14-------------------------------------------------16-14-----------|
B|---------17-14-------------------------------------------------16--------|
G|---------------16-13-14-13-------------------------13-14----------14~\---|
D|---------------------------14-13-------------13-14-----------------------|
A|---------------------------------16-------16-----------------------------|
E|------------------------------------16-16--------------------------------|


e|---12-11----11------------------------------------------------|
B|---------14----14----14----------------------------------14---|
G|------------------14----14-11----------------------11-14------|
D|------------------------------14~---11~------11-14------------|
A|------------------------------------------12------------------|
E|--------------------------------------------------------------|


e|---/13b14br13-12-11-9~-----11-9----------------------------------------|
B|--------------------------------12~-----12-10-9~---10~-----------------|
G|-----------------------------------------------------------13-11-11~---|
D|-----------------------------------------------------------------------|
A|-----------------------------------------------------------------------|
E|-----------------------------------------------------------------------|


e|------------------------------------------------14-16-14----------------|
B|---------------------------------------------------------17-14----------|
G|---------------14----14-------------------------------------------------|
D|---11-14-13-14----13----14-13-11----------11-------------------14-11\---|
A|---------------------------------14-11-14----14-------------------------|
E|------------------------------------------------------------------------|


e|----------------------17------------------------------------|
B|----------------14-17----17-14------------------------------|
G|-------------14----------------14---------------------------|
D|------11-14-----------------------14-11---------------------|
A|---12-----------------------------------12-12p11----12+~----|
E|-------------------------------------------------14---------|



Solo, rhytm guitar (repeat x4):
e|------------------------------------------------------------|
B|------------------------------------------------------------|
G|------------------------------------------------------------|
D|---11--11--11-----11-----11--11--11-----11--11--11-----11---|
A|---11--11--11-----11-----11--11--11-----11--11--11-----11---|
E|----9---9---9------9------9---9---9------9---9---9------9---|
PM    .   .                 .   .          .   .


e|-----------------------------------------------------------|
B|-----------------------------------------------------------|
G|-----------------------------------------------------------|
D|---7---7---7------7------7---7---7------4---4---4------4---|
A|---7---7---7------7------7---7---7------4---4---4------4---|
E|---5---5---5------5------5---5---5------2---2---2------2---|
PM   .   .                 .   .          .   .



Bridge to last chorus:
("Then it's really over, my earthly misery...")
e|-----------------------------------------------|
B|-----------------------------------------------|
G|-----------------------------------------------|
D|---7-----4-----2-----4-----7-----9-----5---4---|
A|---7-----4-----4-----6-----7-----7-----7---6---|
E|---5-----2-----4-----6-----5-----7-----7---6---|



Then play the main lead melody & rhytm 'til the end.



************************************

| /   slide up
| \   slide down
| h   hammer-on
| p   pull-off
| ~   vibrato
| +   harmonic
| b   Bend
| br  Bend release

************************************





Comments


Popular To Die For tabs & chords
In Solitude Bass Tabs
Rimed With Frost Bass Tabs
Veiled Bass Tabs
Rimed With Frost Tabs
Veiled Tabs


Song lyrics



↑ Back to top | Tablatures and chords are parodies/interpretations of the original songs. You may use it for private study, scholarship, research or language learning purposes only
© 2014 AZChords.com Contact us | Privacy policy | DMCA | Add/correct tabs | Request tabs | Top 50 tabs