» » »

Toby Turner, Tobys Tabs (ver.3)

Artists:  A B C D E F G H I J K L M N O P Q R S T U V W X Y Z # 

Tobys Tabs (ver.3)

Toby Turner Tabs
Rating:
0/5 (0 votes)
Tobys lessons Tabs too difficult? Try these video lessons and learn fast
                (Theme)
------------------------------------
                             Toby's theme - Toby Turner
------------------------------------

Tuning: D A D F# A# C#

e|-------------------------------------|-----------------------------------|
B|-------------------------------------|-----------------------------------|
G|-------------------------------------|-----------------------------------|
D|-----0-5/7---------------3p0---------|-----0-5/7---5--5-5/7-7--7---------|
A|-------------7\5---5-5-------3p0-----|-------------3--3-3/5-5--5---------|
E|-3/5-------0-------------------------|-3/5-------0-----------------------|

e|-------------------------------------|-----------------------------------|
B|-------------------------------------|-----------------------------------|
G|-------------------------------------|-----------------------------------|
D|-----0-5/7---------------3p0---------|-----------------3-----------------|
A|-------------7\5---5-5-------3p0-----|-----------0-3-5----3--3/5---------|
E|-3/5-------0-------------------------|-3/5-0-3-5-------------------------|




e|-13p11----11-------------------------|-13p11----11----11-13/15-13-11/11--|
B|-------11----11----11-12-11----11----|-------11----11--------------------|
G|----------------13----------13-------|-----------------------------------|
D|----------------------------------12-|-----------------------------------|
A|-------------------------------------|-----------------------------------|
E|-------------------------------------|-----------------------------------|

e|-13p11----11-------------------------|-----------------------------------|
B|-------11----11----11-12-11----11----|-12-11-----------------------------|
G|----------------13----------13-------|-------13-11-10----11-10-----------|
D|----------------------------------12-|----------------10-------10-10/12--|
A|-------------------------------------|-----------------------------------|
E|-------------------------------------|-----------------------------------|




e|-------------------------------------|-----------------------------------|
B|-------------------------------------|-----------------------------------|
G|-------------------------------------|-----------------------------------|
D|-----0-5/7---------------3p0---------|-----0-5/7---5--5-5/7-7--7---------|
A|-------------7\5---5-5-------3p0-----|-------------3--3-3/5-5--5---------|
E|-3/5-------0-------------------------|-3/5-------0-----------------------|

e|-------------------------------------|-----------------------------------|
B|-------------------------------------|-----------------------------------|
G|-------------------------------------|-----------------------------------|
D|-----0-5/7---------------3p0---------|-----------------3-----------------|
A|-------------7\5---5-5-------3p0-----|-----------0-3-5----3--3/5---------|
E|-3/5-------0-------------------------|-3/5-0-3-5-------------------------|


************************************

| /   slide up
| \   slide down
| h   hammer-on
| p   pull-off
| ~   vibrato
| +   harmonic
| x   Mute note
| b   Bend
| pb  Pre-bend
| br  Bend release
| pbr Pre-bend release
| brb Bend release bend

************************************
            

comments powered by Disqus
↑ Back to top | Toby Turner Tabs for Tobys. Lyrics for acoustic guitar and electric guitar. Tablatures and chords are parodies/interpretations of the original songs. You may use it for private study, scholarship, research or language learning purposes only