» » »

Tim Hughes, God Of Justice Chords (ver.2)

Artists:  A B C D E F G H I J K L M N O P Q R S T U V W X Y Z # 

God Of Justice Chords (ver.2)

Tim Hughes Tabs
 Rating:
4/5 (4 votes)
God Of Justice lessons Tabs too difficult? Try these video lessons and learn fast
                -----------------------------------------------------------------------------
                          Tim Hughes - God of Justice
-----------------------------------------------------------------------------


Tuning:  Standard, EADGBe


"Sing to him a new song; play skillfully..."  Ps. 33:3


Intro:

acoustic guitar comes in at 0:17

      Bb/D
e|-------------|
B|----3--------|
G|----3--------|    Let ring
D|----3--------|
A|----5--------|
E|-------------|


Intro/Verse Progression:

     Bb/D      C/E       F/A     Bb/D
e|-----------------------5-5---------------------------------------|
B|---3-3-3-3---5-5-5-5---6-6-----3-3-------------------------------|
G|---3-3-3-3---5-5-5-5---5-5-----3-3-------------------------------|
D|---3-3-3-3---5-5-5-5---7-7-----3-3-------------------------------|
A|---5-5-5-5---7-7-7-7-----------5-5-------------------------------|
E|-----------------------------------------------------------------|

Notes on Intro/Verse:

These are inversions of the regular chords, matched by the piano progression.

Played very staccato for the most part.

It follows this until the progression changes.  Right before the progression changes, 
last chord is hit only once instead of twice, making the change come quicker, kind of hip.

Listen and try and try to play along to get the feel.

Pre Chorus:

Dm              C
Jesus, You have called us
Bb                                    C
Freely we've received, Now freely we will give


Chorus:
        F                   C
We must go live to feed the hungry
                 Dm              Bb
Stand beside the broken,  We must go
           F                       C
Stepping forward keep us from just singing
             Dm              Bb
Move us into action, We must go

Hang on Bb a little bit, back to another verse, prechorus and chorus


Breakdown

Bb
Fill us up, send us out
C
Fill us up, send us out

Keep alternating between Bb and C for the whole breakdown/crescendo


Then it goes to this progression:

Gm      Dm      F       C

(lyrics)
       Gm
Acting justly
       F
Loving mercy
        F           C
We must go, we must go

       Gm
to the broken
         F
and the(hurting?)
        F           C
we must go, we must go

Back to the chorus progression,

it hangs on this chorus progression until the end of the song, a lil vocal jam ensues


Chord Chart:

Bb      X13331  or 688766
Bb/D    X5333x
C       X35553  or X32010
C/E     X7555X
Dm      X57765  or XX0231
F       133211  or XX3211
F/A     XX7565
Gm      355333
            
Submit corrections

comments powered by Disqus
↑ Back to top | Tim Hughes Chords for God Of Justice. Lyrics for acoustic guitar and electric guitar. Tablatures and chords are parodies/interpretations of the original songs. You may use it for private study, scholarship, research or language learning purposes only