» » »

Tiger Lou, You Can't Say No To Me Tabs (ver.2)

Artists:  A B C D E F G H I J K L M N O P Q R S T U V W X Y Z # 

You Can't Say No To Me Tabs (ver.2)

Tiger Lou Tabs
 Rating:
4/5 (4 votes)
You Can't Say No To Me lessons Tabs too difficult? Try these video lessons and learn fast
1
                You play it like this:

intro/break
vers
vers
first refrain
intro/break
vers
last refr


     Intro/Break

D|---------3--------|-----------3--------|-----------3--------|
A|------3-----3-----|--------3-----3-----|--------3-----3-----|
F|---0-----------0--|-----0-----------0--|-----0-----------0--|
C|2-----------------|--------------------|--------------------|
G|------------------|--3-----------------|--------------------|
D|------------------|--------------------|--3-----------------|



-----------3--------|-----------3--------|-----------3--------|
--------3-----3-----|--------3-----3-----|--------3-----3-----|
-----0-----------0--|-----0-----------0--|-----0-----------0--|
--------------------|--2-----------------|--------------------|
--------------------|--------------------|--2-----------------|
--3-----------------|--------------------|--------------------|



-----------3--------|-----------3--------|-----------3--------|
--------3-----3-----|--------3-----3-----|--------3-----3-----|
-----0-----------0--|-----0-----------0--|-----0-----------0--|
--------------------|--------------------|--2-----------------|
--3-----------------|--3-----------------|--------------------|
--------------------|--------------------|--------------------|



-----------3--------|-----------3--------|-----------3--------|
--------3-----3-----|--------3-----3-----|--------3-----3-----|
-----0-----------0--|-----0-----------0--|-----0-----------0--|
--------------------|--------------------|--------------------|
--3-----------------|--------------------|--------------------|
--------------------|--3-----------------|--3-----------------|


-----------3--------|-----------3--------|-----------3--------|
--------3-----3-----|--------3-----3-----|--------3-----3-----|
-----0-----------0--|-----0-----------0--|-----0-----------0--|
--------------------|--------------------|--0-----------------|
--2-----------------|--3-----------------|--------------------|
--------------------|--------------------|--------------------|


-----------3--------|-----------3--------|-----------3--------|
--------3-----3-----|--------3-----3-----|--------3-----3-----|
-----0-----------0--|-----0-----------0--|-----0-----------0--|
--0-----------------|--0-----------------|--0-----------------|
--------------------|--------------------|--------------------|
--------------------|--------------------|--------------------|


    Vers 1
|--------------3--------|-----------3--------|-----------3--------|
|-----------3-----3-----|--------3-----3-----|--------3-----3-----|
|--------0-----------0--|-----0-----------0--|-----0-----------0--|
|---2-------------------|--------------------|--------------------|
|-----------------------|--2-----------------|--3-----------------|
|-----------------------|--------------------|--------------------|


-----------3--------|-----------3--------|-----------3--------|
--------3-----3-----|--------3-----3-----|--------3-----3-----|
-----0-----------0--|-----0-----------0--|-----0-----------0--|
--------------------|--2-----------------|--0-----------------|
--3-----------------|--------------------|--------------------|
--------------------|--------------------|--------------------|



-----------3--------|-----------3--------|-----------3--------|
--------3-----3-----|--------3-----3-----|--------3-----3-----|
-----0-----------0--|-----0-----------0--|-----0-----------0--|
--------------------|--------------------|--2-----------------|
--3-----------------|--3-----------------|--------------------|
--------------------|--------------------|--------------------|


-----------3--------|-----------3--------|-----------3--------|
--------3-----3-----|--------3-----3-----|--------3-----3-----|
-----0-----------0--|-----0-----------0--|-----0-----------0--|
--------------------|--------------------|--------------------|
--2-----------------|--3-----------------|--3-----------------|
--------------------|--------------------|--------------------|



-----------3--------|-----------3--------|-----------3--------|
--------3-----3-----|--------3-----3-----|--------3-----3-----|
-----0-----------0--|-----0-----------0--|-----0-----------0--|
--0-----------------|--0-----------------|--0-----------------|
--------------------|--------------------|--------------------|
--------------------|--------------------|--------------------|


-----------3--------|
--------3-----3-----|
-----0-----------0--|
--0-----------------|
--------------------|
--------------------|

      

       Vers 2 (the same as Vers 1)
|--------------3--------|-----------3--------|-----------3--------|
|-----------3-----3-----|--------3-----3-----|--------3-----3-----|
|--------0-----------0--|-----0-----------0--|-----0-----------0--|
|---2-------------------|--------------------|--------------------|
|-----------------------|--2-----------------|--3-----------------|
|-----------------------|--------------------|--------------------|


-----------3--------|-----------3--------|-----------3--------|
--------3-----3-----|--------3-----3-----|--------3-----3-----|
-----0-----------0--|-----0-----------0--|-----0-----------0--|
--------------------|--2-----------------|--0-----------------|
--3-----------------|--------------------|--------------------|
--------------------|--------------------|--------------------|



-----------3--------|-----------3--------|-----------3--------|
--------3-----3-----|--------3-----3-----|--------3-----3-----|
-----0-----------0--|-----0-----------0--|-----0-----------0--|
--------------------|--------------------|--2-----------------|
--3-----------------|--3-----------------|--------------------|
--------------------|--------------------|--------------------|


-----------3--------|-----------3--------|-----------3--------|
--------3-----3-----|--------3-----3-----|--------3-----3-----|
-----0-----------0--|-----0-----------0--|-----0-----------0--|
--------------------|--------------------|--------------------|
--2-----------------|--3-----------------|--3-----------------|
--------------------|--------------------|--------------------|



-----------3--------|-----------3--------|-----------3--------|
--------3-----3-----|--------3-----3-----|--------3-----3-----|
-----0-----------0--|-----0-----------0--|-----0-----------0--|
--0-----------------|--0-----------------|--0-----------------|
--------------------|--------------------|--------------------|
--------------------|--------------------|--------------------|


-----------3--------|
--------3-----3-----|
-----0-----------0--|
--0-----------------|
--------------------|
--------------------|



first Refrain
-----------3--------|-----------3--------|-----------3--------|
--------3-----3-----|--------3-----3-----|--------3-----3-----|
-----0-----------0--|-----0-----------0--|-----0-----------0--|
--------------------|--------------------|--0-----------------|
--3-----------------|--3-----------------|--------------------|
--------------------|--------------------|--------------------|



-----------3--------|-----------3--------|-----------3--------|
--------3-----3-----|--------3-----3-----|--------3-----3-----|
-----0-----------0--|-----0-----------0--|-----0-----------0--|
--0-----------------|--------------------|--------------------|
--------------------|--2-----------------|--2-----------------|
--------------------|--------------------|--------------------|


-----------3--------|-----------3--------|-----------3--------|
--------3-----3-----|--------3-----3-----|--------3-----3-----|
-----0-----------0--|-----0-----------0--|-----0-----------0--|
--------------------|--------------------|--------------------|
--3-----------------|--3-----------------|--3-----------------|
--------------------|--------------------|--------------------|

-----------3--------|-----------3--------|-----------3--------|
--------3-----3-----|--------3-----3-----|--------3-----3-----|
-----0-----------0--|-----0-----------0--|-----0-----------0--|
--------------------|--0-----------------|--0-----------------|
--3-----------------|--------------------|--------------------|
--------------------|--------------------|--------------------|

-----------3--------|-----------3--------|-----------3--------|
--------3-----3-----|--------3-----3-----|--------3-----3-----|
-----0-----------0--|-----0-----------0--|-----0-----------0--|
--2-----------------|--0-----------------|--------------------|
--------------------|--------------------|--3-----------------|
--------------------|--------------------|--------------------|

-----------3--------|-----------3--------|-----------3--------|
--------3-----3-----|--------3-----3-----|--------3-----3-----|
-----0-----------0--|-----0-----------0--|-----0-----------0--|
--------------------|--------------------|--0-----------------|
--3-----------------|--3-----------------|--------------------|
--------------------|--------------------|--------------------|

      Break (same as intro)

D|---------3--------|-----------3--------|-----------3--------|
A|------3-----3-----|--------3-----3-----|--------3-----3-----|
F|---0-----------0--|-----0-----------0--|-----0-----------0--|
C|2-----------------|--------------------|--------------------|
G|------------------|--3-----------------|--------------------|
D|------------------|--------------------|--3-----------------|



-----------3--------|-----------3--------|-----------3--------|
--------3-----3-----|--------3-----3-----|--------3-----3-----|
-----0-----------0--|-----0-----------0--|-----0-----------0--|
--------------------|--2-----------------|--------------------|
--------------------|--------------------|--2-----------------|
--3-----------------|--------------------|--------------------|



-----------3--------|-----------3--------|-----------3--------|
--------3-----3-----|--------3-----3-----|--------3-----3-----|
-----0-----------0--|-----0-----------0--|-----0-----------0--|
--------------------|--------------------|--2-----------------|
--3-----------------|--3-----------------|--------------------|
--------------------|--------------------|--------------------|



-----------3--------|-----------3--------|-----------3--------|
--------3-----3-----|--------3-----3-----|--------3-----3-----|
-----0-----------0--|-----0-----------0--|-----0-----------0--|
--------------------|--------------------|--------------------|
--3-----------------|--------------------|--------------------|
--------------------|--3-----------------|--3-----------------|


-----------3--------|-----------3--------|-----------3--------|
--------3-----3-----|--------3-----3-----|--------3-----3-----|
-----0-----------0--|-----0-----------0--|-----0-----------0--|
--------------------|--------------------|--0-----------------|
--2-----------------|--3-----------------|--------------------|
--------------------|--------------------|--------------------|


-----------3--------|-----------3--------|-----------3--------|
--------3-----3-----|--------3-----3-----|--------3-----3-----|
-----0-----------0--|-----0-----------0--|-----0-----------0--|
--0-----------------|--0-----------------|--0-----------------|
--------------------|--------------------|--------------------|
--------------------|--------------------|--------------------|

|--------------3--------|-----------3--------|-----------3--------|
|-----------3-----3-----|--------3-----3-----|--------3-----3-----|
|--------0-----------0--|-----0-----------0--|-----0-----------0--|
|---2-------------------|--------------------|--------------------|
|-----------------------|--2-----------------|--3-----------------|
|-----------------------|--------------------|--------------------|


-----------3--------|-----------3--------|-----------3--------|
--------3-----3-----|--------3-----3-----|--------3-----3-----|
-----0-----------0--|-----0-----------0--|-----0-----------0--|
--------------------|--2-----------------|--0-----------------|
--3-----------------|--------------------|--------------------|
--------------------|--------------------|--------------------|



-----------3--------|-----------3--------|-----------3--------|
--------3-----3-----|--------3-----3-----|--------3-----3-----|
-----0-----------0--|-----0-----------0--|-----0-----------0--|
--------------------|--------------------|--2-----------------|
--3-----------------|--3-----------------|--------------------|
--------------------|--------------------|--------------------|


-----------3--------|-----------3--------|-----------3--------|
--------3-----3-----|--------3-----3-----|--------3-----3-----|
-----0-----------0--|-----0-----------0--|-----0-----------0--|
--------------------|--------------------|--------------------|
--2-----------------|--3-----------------|--3-----------------|
--------------------|--------------------|--------------------|



-----------3--------|-----------3--------|-----------3--------|
--------3-----3-----|--------3-----3-----|--------3-----3-----|
-----0-----------0--|-----0-----------0--|-----0-----------0--|
--0-----------------|--0-----------------|--0-----------------|
--------------------|--------------------|--------------------|
--------------------|--------------------|--------------------|


-----------3--------|
--------3-----3-----|
-----0-----------0--|
--0-----------------|
--------------------|
--------------------|

Last Refrain
-----------3--------|-----------3--------|-----------3--------|
--------3-----3-----|--------3-----3-----|--------3-----3-----|
-----0-----------0--|-----0-----------0--|-----0-----------0--|
--------------------|--------------------|--0-----------------|
--3-----------------|--3-----------------|--------------------|
--------------------|--------------------|--------------------|


-----------3--------|-----------3--------|-----------3--------|
--------3-----3-----|--------3-----3-----|--------3-----3-----|
-----0-----------0--|-----0-----------0--|-----0-----------0--|
--0-----------------|--------------------|--------------------|
--------------------|--2-----------------|--2-----------------|
--------------------|--------------------|--------------------|

-----------3--------|-----------3--------|-----------3--------|
--------3-----3-----|--------3-----3-----|--------3-----3-----|
-----0-----------0--|-----0-----------0--|-----0-----------0--|
--------------------|--------------------|--------------------|
--3-----------------|--3-----------------|--3-----------------|
--------------------|--------------------|--------------------|


-----------3--------|-----------3--------|-----------3--------|
--------3-----3-----|--------3-----3-----|--------3-----3-----|
-----0-----------0--|-----0-----------0--|-----0-----------0--|
--------------------|--0-----------------|--0-----------------|
--3-----------------|--------------------|--------------------|
--------------------|--------------------|--------------------|


-----------3--------|-----------3--------|-----------3--------|
--------3-----3-----|--------3-----3-----|--------3-----3-----|
-----0-----------0--|-----0-----------0--|-----0-----------0--|
--------------------|--------------------|--------------------|
--2-----------------|--2-----------------|--3-----------------|
--------------------|--------------------|--------------------|


-----------3--------|-----------3--------|-----------3--------|
--------3-----3-----|--------3-----3-----|--------3-----3-----|
-----0-----------0--|-----0-----------0--|-----0-----------0--|
--------------------|--------------------|--------------------|
--3-----------------|--3-----------------|--3-----------------|
--------------------|--------------------|--------------------|


-----------3--------|-----------3--------|-----------3--------|
--------3-----3-----|--------3-----3-----|--------3-----3-----|
-----0-----------0--|-----0-----------0--|-----0-----------0--|
--0-----------------|--0-----------------|--2-----------------|
--------------------|--------------------|--------------------|
--------------------|--------------------|--------------------|


-----------3--------|-----------3--------|-----------3--------|
--------3-----3-----|--------3-----3-----|--------3-----3-----|
-----0-----------0--|-----0-----------0--|-----0-----------0--|
--0-----------------|--------------------|--------------------|
--------------------|--3-----------------|--3-----------------|
--------------------|--------------------|--------------------|


-----------3--------|-----------3--------|
--------3-----3-----|--------3-----3-----|
-----0-----------0--|-----0-----------0--|
--------------------|--------------------|
--3-----------------|--3-----------------|
--------------------|--------------------|

-----------3--------|-----------3--------|
--------3-----3-----|--------3-----3-----|
-----0-----------0--|-----0-----------0--|
--2-----------------|--0-----------------|
--------------------|--------------------|
--------------------|--------------------|


-----------3--------|-----------3--------|-----------3--------|
--------3-----3-----|--------3-----3-----|--------3-----3-----|
-----0-----------0--|-----0-----------0--|-----0-----------0--|
--------------------|--------------------|--------------------|
--3-----------------|--3-----------------|--3-----------------|
--------------------|--------------------|--------------------|


-----------3--------|---------------||
--------3-----3-----|---------------||
-----0-----------0--|---------------||
--0-----------------|---------------||
--------------------|---------------||
--------------------|--3------------||
            
Submit corrections

comments powered by Disqus
↑ Back to top | Tiger Lou Tabs for You Can't Say No To Me. Lyrics for acoustic guitar and electric guitar. 1 Tablatures and chords are parodies/interpretations of the original songs. You may use it for private study, scholarship, research or language learning purposes only