» » »

The Time Is Wrong Bass tabs (ver.1)

Artists:  A B C D E F G H I J K L M N O P Q R S T U V W X Y Z # 

The Time Is Wrong Bass tabs (ver.1)

Tickle Me Pink
Rating:
5/5 (1 vote)

Hard to play? Try these video lessons and learn fast.
                
Such a shame their bassist died so young............
He was a really talented bass player and would have
done many great things in life although he already
had with this amazingly talented band with probably
the worst name possible lol

RIP Johnny Schou...

Once I get their Cd ill probably tab out more of their songs for bass.

Intro
-----------------------------|
-----------------------------|
-----------------------------|
-6~-----44-----6~-----99-----| x2

---------|
---------|
---------|
-6-------|

Verse - bass comes in late

------------------------------11111--------|
-----3----44444-33------3-----------33-----|
-------------------------------------------|
-222---22-----------222----22--------------|


---------------------------------------------|
----------------------------6---6------------|
------------------------------6---9-8--------|
-6666666666666666--9999999-------------------| x2


pre chorus
------------------------------11111--------|
-----3----44444-33------3-----------33-----|
-------------------------------------------|
-222---22-----------222----22--------------|


chorus
-----------------------------------------------------------------------------|
-----------------------------------------------------------------------------|
-----------------------------------------------------------------------------|
-666666-46--66666-44--666666-46-66666-44-999999-89-99999-88--4444444-1111111-|


--------------------------------------------------|
--------------------------------------------------|
--------------------------------------------------|
-66---4---2---66--4---2--1-111111111-1------------|


Verse 2

------------------------------------------------|
------------------------------------------------|
------------------------------------------------|
-666666-66---999999-99--999--666666-66-99999-99-|

------------------------------11111--------|
-----3----44444-33------3-----------33-----|
-------------------------------------------|
-222---22-----------222----22--------------|

---------------------------------------------|
----------------------------6---6------------|
------------------------------6---9-8--------|
-6666666666666666--9999999-------------------| x2


pre chorus
------------------------------11111--------|
-----3----44444-33------3-----------33-----|
-------------------------------------------|
-222---22-----------222----22--------------|


chorus
--------------------------------------------------------------------------|
--------------------------------------------------------------------------|
--------------------------------------------------------------------------|
-666666-46--66666-44--666666-46-66666-44-999999-89-99999-88--44444-11111--|x2

--------------------------------------------------|
--------------------------------------------------|
--------------------------------------------------|
-66---4---2---66--4---2--1-111111111-1------------|


Bridge pt 1

---------------------------------------------------------|
---------------------------------------------------------|
---------------------------------------------------------|
-666666-46--66666-44----666666-46--666--99-44------------| x6

------------------------------|
-----3------------------------|
------------------------------|
-222---22--22222-11-----------|


Bridge pt 2/Outro

----------------------------------|
----------------------------------|
---------666--8-------------------|
-666-999---------9----------------| x4


End on

-----------------|
-----------------|
-----------------|
-6~~~~-----------|
            
Hard to play? Try these video lessons and learn fast. | Correct




comments powered by Disqus
↑ Back to top | Tablatures and chords are parodies/interpretations of the original songs. You may use it for private study, scholarship, research or language learning purposes only