>
 >
The Time Is Wrong

The Time Is Wrong Guitar Tabs

Tickle Me Pink - The Time Is Wrong chords, tabs, tablatures, lyrics

Guitar lessons | Add/correct | Request | Top 50 tabs Artists:  A B C D E F G H I J K L M N O P Q R S T U V W X Y Z 0-9

The Time Is Wrong Guitar Tabs – Tickle Me Pink

CD, Sheet music, Poster

Do you like The Time Is Wrong? Share with your friends now
Bass TabsTabs
"The Time Is Wrong" by Tickle Me Pink
For the bottom note...its a Db...make it so that the 8th fret on the bottom
string is the same as open on the string above it...
it's wierd but it's right.


Intro Guitar 1
e----------------------------------------------------------------|
B----------------------------------------------------------------|
G----------------------------------------------------------------|
D-------------------------------------------------------6--6--6--|
A---x-8--8--4h6h8-9p8-6p4--6--6--6-8--8--4h6h8-9p8-6p4--4--4--4--|
Db--x-9--9-----------------7--7--7-9--9--------------------------|

e----------------------------------------------------------------|
B----------------------------------------------------------------|
G----------------------------------------------------------------|
D-----------------------------------------------------6--6--6----|
A---8--8--4h6h8-9p8-6p4--6--6--6-8--8--4h6h8-9p8-6p4--4--4--4-8--|
Db--9--9-----------------7--7--7-9--9-------------------------9--|

Guitar 2
e-----------------------------------------------------------|
B-----------------------------------------------------------|
G-----------------------------------------------------------|
D--------------------------------------------------6--6--6--|
A---x-8~----------------6--6--6-8--8---------------4--4--4--|
Db--x-9~----------------7--7--7-9--9------------------------|

e------------------------------------------------------------|
B------------------------------------------------------------|
G------------------------------------------------------------|
D-------------------------------------------------6--6--6----|
A---x-8--8-8-8-8-8-8-8--6--6--6-8--8-8-8-8-8-8-8--4--4--4-8--|
Db--x-9--9-9-9-9-9-9-9--7--7--7-9--9-9-9-9-9-9-9----------9--|
           . . . . . .               . . . . . .

Verse 1a - Clean
e---------------------------------------------------------------------|
B---------------------------------------------------------------------|
G---------------------------------------------------------------------|
D---------------------------------------------------------------------|
A-----8---8---8---8---8---8---8---8---8---8---8---8---9---9---11--11--|
Db--9---9---9---9---9---9---9---9---0---0---0---0---0---0---0---0-----|

e--------------------------------------------------------------------|
B--------------------------------------------------------------------|
G--------------------------------------------------------------------|
D--------------------------------------------------------------------|
A-----8---8---8---8---8---8---8---8---8---8---8---8---11--11--9---8--|
Db--9---9---9---9---9---9---9---9---0---0---0---0---0---0---0---0----|

PreChorus 1a - Both Guitars w/distortion
e---------------------------------------------------------------|
B---------------------------------------------------------------|
G---------------------------------------------------------------|
D----------3-------4-4-4-4-4-4-3---------3-------6-6-6-6-6-6-6--|
A---4-4-4-----4-4-----------------4-4-4-----4-4-----------------|
Db--5-5-5-----5-5-----------------5-5-5-----5-5-----------------|
                                                 . . . . . . .

Verse 1b - Clean
e---------------------------------------------------------------------|
B---------------------------------------------------------------------|
G---------------------------------------------------------------------|
D---------------------------------------------------------------------|
A-----8---8---8---8---8---8---8---8---8---8---8---8---9---9---11--11--|
Db--9---9---9---9---9---9---9---9---0---0---0---0---0---0---0---0-----|

e--------------------------------------------------------------------|
B--------------------------------------------------------------------|
G--------------------------------------------------------------------|
D--------------------------------------------------------------------|
A-----8---8---8---8---8---8---8---8---8---8---8---8---11--11--9---8--|
Db--9---9---9---9---9---9---9---9---0---0---0---0---0---0---0---0----|

PreChorus 1b - Both Guitars w/distortion
e---------------------------------------------------------------|
B---------------------------------------------------------------|
G---------------------------------------------------------------|
D----------3-------4-4-4-4-4-4-3---------3-------6-6-6-6-6-6-6--|
A---4-4-4-----4-4-----------------4-4-4-----4-4-----------------|
Db--5-5-5-----5-5-----------------5-5-5-----5-5-----------------|
                                                 . . . . . . .

Chorus - Both Guitars w/distortion
e------------------------------------------------------------|
B------------------------------------------------------------|
G------------------------------------------------------------|
D---8--8--8-8--8---8-8-8--8-8-8-8--8--8-8--8---8-8-8--8-8-8--|
A---8--8--8-8--8---8-8-8--8-8-8-8--8--8-8--8---8-8-8--8-8-8--|
Db--9--9--9-9--9---9-9-9--9-9-9-9--9--9-9--9---9-9-9--9-9-9--|

e---------------------------------------------------------------|
B---------------------------------------------------------------|
G---------------------------------------------------------------|
D---11--11--11-11--11---11-11-11--11-11-11-6--6--6-6--3--3-3-3--|
A---11--11--11-11--11---11-11-11--11-11-11-6--6--6-6--3--3-3-3--|
Db--12--12--12-12--12---12-12-12--12-12-12-7--7--7-7--4--4-4-4--|

Chorus Pt 2 Guitar 1
e---------------------------------------------|
B---------------------------------------------|
G---------------------------------------------|
D---8--8-6--4----8--8-6--4--3--3-3-3-3-3-3-3--|
A---8--8-6--4--x-8--8-6--4--3--3-3-3-3-3-3-3--|
Db--9--9-7--5--x-9--9-7--5--4--4-4-4-4-4-4-4--|
                                 . . . . . .

Guitar 2
e----------------------------------------------------------|
B----------------------------------------------------------|
G----------------------------------------------------------|
D----------------------------------------------------------|
A-------------------------------------------/8--6-4-6------|
Db---------------------------------------------------7--9~-|

Verse 2a - Clean
e---------------------------------------------------------------------|
B---------------------------------------------------------------------|
G---------------------------------------------------------------------|
D---------------------------------------------------------------------|
A-----8---8---8---8---8---8---8---8---8---8---8---8---9---9---11--9p8-|
Db--9---9---9---9---9---9---9---9---0---0---0---0---0---0---0---0-----|

e--------------------------------------------------------------------|
B--------------------------------------------------------------------|
G--------------------------------------------------------------------|
D--------------------------------------------------------------------|
A-----8---8---8---8---8---8---8---8---8---8---8---8---11--11--9---8--|
Db--9---9---9---9---9---9---9---9---0---0---0---0---0---0---0---0----|

PreChorus 2a - Both Guitars w/distortion
e---------------------------------------------------------------|
B---------------------------------------------------------------|
G---------------------------------------------------------------|
D----------3-------4-4-4-4-4-4-3---------3-------6-6-6-6-6-6-6--|
A---4-4-4-----4-4-----------------4-4-4-----4-4-----------------|
Db--5-5-5-----5-5-----------------5-5-5-----5-5-----------------|
                                                 . . . . . . .

Verse 2b - Clean

e--------------------------------------------------------------------|
B--------------------------------------------------------------------|
G--------------------------------------------------------------------|
D--------------------------------------------------------------------|
A-----8---8---8---8---8---8---8---8---8---8---8---8---9---9---11--11-|
Db--9---9---9---9---9---9---9---9---0---0---0---0---0---0---0---0----|

e--------------------------------------------------------------------|
B--------------------------------------------------------------------|
G--------------------------------------------------------------------|
D--------------------------------------------------------------------|
A-----8---8---8---8---8---8---8---8---8---8---8---8---11--11--9---8--|
Db--9---9---9---9---9---9---9---9---0---0---0---0---0---0---0---0----|

PreChorus 2b - Both Guitars w/distortion
e---------------------------------------------------------------|
B---------------------------------------------------------------|
G---------------------------------------------------------------|
D----------3-------4-4-4-4-4-4-3---------3-------6-6-6-6-6-6-6--|
A---4-4-4-----4-4-----------------4-4-4-----4-4-----------------|
Db--5-5-5-----5-5-----------------5-5-5-----5-5-----------------|
                                                 . . . . . . .

Chorus - Both Guitars w/distortion
e------------------------------------------------------------|
B------------------------------------------------------------|
G------------------------------------------------------------|
D---8--8--8-8--8---8-8-8--8-8-8-8--8--8-8--8---8-8-8--8-8-8--|
A---8--8--8-8--8---8-8-8--8-8-8-8--8--8-8--8---8-8-8--8-8-8--|
Db--9--9--9-9--9---9-9-9--9-9-9-9--9--9-9--9---9-9-9--9-9-9--|

e---------------------------------------------------------------|
B---------------------------------------------------------------|
G---------------------------------------------------------------|
D---11--11--11-11--11---11-11-11--11-11-11-6--6--6-6--3--3-3-3--|
A---11--11--11-11--11---11-11-11--11-11-11-6--6--6-6--3--3-3-3--|
Db--12--12--12-12--12---12-12-12--12-12-12-7--7--7-7--4--4-4-4--|

Chorus Pt 2 Guitar 1
e---------------------------------------------|
B---------------------------------------------|
G---------------------------------------------|
D---8--8-6--4----8--8-6--4--3--3-3-3-3-3-3-3--|
A---8--8-6--4--x-8--8-6--4--3--3-3-3-3-3-3-3--|
Db--9--9-7--5--x-9--9-7--5--4--4-4-4-4-4-4-4--|
                                 . . . . . .

Guitar 2
e-------------------------------------------------------------|
B-------------------------------------------------------------|
G-------------------------------------------------------------|
D-------------------------------------------------------------|
A-------------------------------------------/8--6-4-6---------|
Db---------------------------------------------------7--9~~~~-|


Long pause w/ just bass

PreChorus Riff - Both Guitars w/distortion
e---------------------------------|
B---------------------------------|
G---------------------------------|
D----------3-------6-6-6-6-6-6-6--|
A---4-4-4-----4-4-----------------|
Db--5-5-5-----5-5-----------------|
                   . . . . . . .

Ending Riff
e---------------------------------------------------------|
B---------------------------------------------------------|
G---------------------------------------------------------| Play this
D---------------------------------------------------------|  4 times
A---------------------------------------------------------|
Db--9--9--9--12--12--12--14--14--14--/16--12h14p14--------|

e--------------------------------------------------|
B--------------------------------------------------|
G--------------------------------------------------| Play this
D--------------------------------------------------|  2 times
A---8--8--8--11--11--11--13--13--13--15------------|
Db--9--9--9--12--12--12--14--14--14--16--12h14p12--|

End on:

e-------|
B-------|
G-------|
D---8~~~
A---8~~~
Db--9~~~





Comments


Popular Tickle Me Pink tabs & chords
I Can't Breathe Bass Tabs
The Time Is Wrong Bass Tabs
Typical Bass Tabs
Madeline Chords
Madeline 1 Chords
Madeline 2 Chords
Beside The Others Tabs
Madeline Tabs
Typical Tabs
Madeline Ukulele


Song lyrics



↑ Back to top | Tablatures and chords are parodies/interpretations of the original songs. You may use it for private study, scholarship, research or language learning purposes only
© 2014 AZChords.com Contact us | Privacy policy | DMCA | Add/correct tabs | Request tabs | Top 50 tabs