» » »

Tickle Me Pink, I Can't Breathe Tabs (ver.1)

Artists:  A B C D E F G H I J K L M N O P Q R S T U V W X Y Z # 

I Can't Breathe Tabs (ver.1)

Tickle Me Pink Tabs
 Rating:
4/5 (4 votes)
I Can't Breathe lessons Tabs too difficult? Try these video lessons and learn fast
1
                -------------------------------------------------------------------------------
-------------------------------------------------------------------------------


Tuning: Half-step down (Eb Ab Db Gb Bb eb)


Intro/Chorus x4
eb-------------------|
Bb-----0-------------|
Gb-----0---------777-|
Db--2-22-2-555-5-777-|
Ab--2-2--2-555-5-555-|
Eb--0-0--0-333-3-----|

Verse x2
eb-7x-7x-7x-7xx-14x-14x-14x-14xx-|
Bb-8x-8x-8x-8xx-16x-16x-16x-16xx-|
Gb-9x-9x-9x-9xx-16x-16x-16x-16xx-|
Db-9x-9x-9x-9xx-16x-16x-16x-16xx-|
Ab-7x-7x-7x-7xx-14x-14x-14x-14xx-|
Eb-------------------------------|

eb-7x-7x-7x-7xx-12x-12x-10x-10xx--|
Bb-8x-8x-8x-8xx-14x-14x-12x-12xx--|
Gb-9x-9x-9x-9xx-14x-14x-12x-12xx--|
Db-9x-9x-9x-9xx-14x-14x-12x-12xx--|
Ab-7x-7x-7x-7xx-12x-12x-10x-10xx--|
Eb--------------------------------|

eb---------------------------------|
Bb-8-8-8-8-8-8-8-8-14-14-14-14-12x-|
Gb-9-9-9-9-9-9-9-9-14-14-14-14-12x-|
Db-9-9-9-9-9-9-9-9-14-14-14-14-12x-|
Ab-7-7-7-7-7-7-7-7-12-12-12-12-10x-|
Eb---------------------------------|

Intro/Chorus x4
Verse x2
Intro/Chorus x4

Breakdown Part 1
eb---------------------|
Bb------------------*7-|
Gb-----------------*7--|
Db-22-2-2-2-2-2-*7*7---|
Ab-22-2-2-2-2-2--------|
Eb-00-0-0-0-0-0--------|

Breakdown Part 2 x2
eb-----------------------------------------|
Bb------------------*7---------------------|
Gb-----------------*7*7--------------------|
Db-22-2-2-2-2-2-*7*7----22-2-2-2-2-22------|
Ab-22-2-2-2-2-2---------22-2-2-2-2-22------|
Eb-00-0-0-0-0-0---------00-0-0-0-0-00-5-3~-|

Breakdown Part 3 x1
eb------------------------------|-----------------------------------|
Bb------------------------------|-----------------------------------|
Gb-7/-1112-1414-1211--7/9-119-4-|-9-111414-12117/9-119-161616161616-|
Db-x-x-x-xx-xxxx-xxx--x-x-x-x-x-|-x-x-xxxx-xxx-x-x-x-x-xxxxxxxxxxxx-|
Ab-5/7-9-10-1212-109--5/7-9-7-2-|-7-9-1212-109-5/7-9-7-141414141414-|
Eb------------------------------|-----------------------------------|

Breakdown Part 4 x1
eb------------|  |-----------------|
Bb------------|  |-----------------|
Gb-999-111177-|  |-14--------------|
Db-xxx-xxx-xx-|x8|-xx-(many times)-|
Ab-777-999-55-|  |-12--------------|
Eb------------|  |-----------------|

Intro/Chorus x8

End on
eb------|
Bb-8-8\-|
Gb-9-9\-|
Db-9-9\-|
Ab-7-7\-|
Eb------|



| /  slide up
| \  slide down
| h  hammer-on
| p  pull-off
| ~  vibrato
| *  harmonic
| x  Mute note
===============================================================================
            
Submit corrections

comments powered by Disqus
↑ Back to top | Tickle Me Pink Tabs for I Can't Breathe. Lyrics for acoustic guitar and electric guitar. 1 Tablatures and chords are parodies/interpretations of the original songs. You may use it for private study, scholarship, research or language learning purposes only