» » »

Tickle Me Pink, I Can't Breathe Bass tabs (ver.1)

Artists:  A B C D E F G H I J K L M N O P Q R S T U V W X Y Z # 

I Can't Breathe Bass tabs (ver.1)

Tickle Me Pink Tabs
Rating:
0/5 (0 votes)
Hard to play? Try these video lessons and learn fast.
                Intro x4

Gb|-------------------------|
Db|-------------------------|
Ab|-------7-------5555------|
Eb|---00----3333------------|

Verse 1

Gb|-----9-7-9----------------------|
Db|---9-------9-77-9-7-------------|
Ab|-7------------------------------|
Eb|--------------------------------|

Gb|--------------------------------------|
Db|-----9-7-9-7-7-9-7--------------------|
Ab|---9---------------10-9---------------|
Eb|-7------------------------------------|

Gb|---------9-11-12-11-9-9---------------|
Db|-------9------------------------------|
Ab|--7-7---------------------------------|
Eb|--------------------------------------|

Gb|--------------------------------------|
Db|------7-7-9-9-9-9---------------------|
Ab|----7-------------9-------------------|
Eb|--5-----------------7-----------------|

Post Verse/Prechorus x1 (Repeat verse 1 after the first verse)

Gb|--------------------------------------|
Db|------7--7--7-------------------------|
Ab|--------------------------------------|
Eb|--555--5--5--5--33333-2---------------|

Chorus x4

Gb|-------------------------|
Db|-------------------------|
Ab|-------7-------5555------|
Eb|---00----3333------------|

Verse 2 x1

Gb|--------------------12----------------|
Db|-----------------14-------------------|
Ab|--7777-----14-14----------------------|
Eb|-------000----------------------------|

Gb|--------------------------------------|
Db|--------------------------9-9---------|
Ab|----------------7-------9-----9-------|
Eb|--777-5-77-5-7----0-555---------7-----|

Post Verse/Prechorus x1

Gb|--------------------------------------|
Db|------7--7--7-------------------------|
Ab|--------------------------------------|
Eb|--555--5--5--5--33333-2---------------|

Chorus x4

Gb|-------------------------|
Db|-------------------------|
Ab|-------7-------5555------|
Eb|---00----3333------------|

Verse 3 (Same as Verse 1)

Gb|-----9-7-9----------------------|
Db|---9-------9-77-9-7-------------|
Ab|-7------------------------------|
Eb|--------------------------------|

Gb|--------------------------------------|
Db|-----9-7-9-7-7-9-7--------------------|
Ab|---9---------------10-9---------------|
Eb|-7------------------------------------|

Gb|---------9-11-12-11-9-9---------------|
Db|-------9------------------------------|
Ab|--7-7---------------------------------|
Eb|--------------------------------------|

Gb|--------------------------------------|
Db|------7-7-9-9-9-9---------------------|
Ab|----7-------------9-------------------|
Eb|--5-----------------7-----------------|

Post Verse/Prechorus x1 
Gb|--------------------------------------|
Db|------7--7--7-------------------------|
Ab|--------------------------------------|
Eb|--555--5--5--5--33333-2---------------|

Chorus x4

Gb|-------------------------|
Db|-------------------------|
Ab|-------7-------5555------|
Eb|---00----3333------------|

Verse 1

Gb|-----9-7-9----------------------|
Db|---9-------9-77-9-7-------------|
Ab|-7------------------------------|
Eb|--------------------------------|

Gb|--------------------------------------|
Db|-----9-7-9-7-7-9-7--------------------|
Ab|---9---------------10-9---------------|
Eb|-7------------------------------------|

Gb|---------9-11-12-11-9-9---------------|
Db|-------9------------------------------|
Ab|--7-7---------------------------------|
Eb|--------------------------------------|

Gb|--------------------------------------|
Db|------7-7-9-9-9-9---------------------|
Ab|----7-------------9-------------------|
Eb|--5-----------------7-----------------|

Post Verse/Prechorus x1 (Repeat verse 1 after the first verse)

Gb|--------------------------------------|
Db|------7--7--7-------------------------|
Ab|--------------------------------------|
Eb|--555--5--5--5--33333-2---------------|

Chorus x4

Gb|-------------------------|
Db|-------------------------|
Ab|-------7-------5555------|
Eb|---00----3333------------|

Bridge x1 (10's)

Gb|-------------------------|
Db|-------7-99-77-----------|
Ab|-h7-10--------1010-99----|
Eb|-------------------------|

Gb|---------------------------------|
Db|---------------------------------|
Ab|---------------------------------|
Eb|--00-000-0-00-0-00-000-0-5-3-----|  x2

Gb|-------------------------|
Db|-----------77------------|
Ab|--5-7-9-10----10-9-------|
Eb|-------------------------|

Gb|-------------------------------|
Db|-----------------77------7--7--|
Ab|--5-7-9-7---7-9-----10-9---9---|
Eb|----------7--------------------|

Gb|-------------------------|
Db|-------------------------|
Ab|----777-7777-------------|
Eb|--0----------------------| x9

Chorus x8
Gb|-------------------------|
Db|-------------------------|
Ab|-------7-------5555------|
Eb|---00----3333------------|
            

comments powered by Disqus
↑ Back to top | Tickle Me Pink Bass for I Can't Breathe. Lyrics for acoustic guitar and electric guitar. Tablatures and chords are parodies/interpretations of the original songs. You may use it for private study, scholarship, research or language learning purposes only