» » »

Three Days Grace, I Hate Everything About U Tabs (ver.1)

Artists:  A B C D E F G H I J K L M N O P Q R S T U V W X Y Z # 

I Hate Everything About U Tabs (ver.1)

Three Days Grace Tabs
Rating:
0/5 (0 votes)
I Hate Everything About U lessons Tabs too difficult? Try these video lessons and learn fast
                Before you start playing you need to know one thing this is my first tab and I’m new.You need to either have a master metal pedal or a distortion button on your amp.You'll need to be able to switch back and forth between nomarl and distortion mode quickly.But I am 100% sure this is correct ok proceed.
  
h= hammer on.
p= pull off.
\= slide.
x= lay your fingers across the strings and play them down, up, down. (Dead note)
(#)= let pervious note ring.
X# = play that many times ex. (X3 = three times)



Intro

E------------------------------------------------------------------|
B------------------------------------------------------------------|
G------4-6-----4-6-----4-6-----4-6----4-6-----4-6-----4-6-----4-6--| play 6 times
D------4-6-----4-6-----4-6-----4-6----4-6-----4-6-----4-6-----4-6--|
A------------------------------------------------------------------|
D-0h4-----0h4-----0h4----0h4----0-0-----0-0-----0-0-----0-0--------|


E---------------------------------------------|
B---------------------------------------6-(6)-|
G---------------------------------------6-(6)-|
D-2-(2)-------------0-(0)---------------------|
A-2-(2)-------------0-(0)---------------------|
D-2-(2)-------------0-(0)---------------------|
             Heavy Distortion 


 
E---------------------------------------------------------|
B---------------------------------------------------------|
G---------------------------------------------------------|
D---------------------------------------------------------|
A-4-4--0-0--7-7-7-7--2-2-2-2-2--4-4--0-0--2-2-2-2-2-\7-6--|
D-4-4--0-0--7-7-7-7--2-2-2-2-2--4-4--0-0--2-2-2-2-2-\7-6--|
                  Heavy Distortion  




E------------------------------------------------------------------|
B------------------------------------------------------------------|
G------4-6-----4-6-----4-6-----4-6----4-6-----4-6-----4-6-----4-6--|
D------4-6-----4-6-----4-6-----4-6----4-6-----4-6-----4-6-----4-6--|
A------------------------------------------------------------------|
D-0h4-----0h4-----0h4----0h4----0-0-----0-0-----0-0-----0-0--------|

Play this 4 times


E---------------------------------------------|
B---------------------------------------6-(6)-|
G---------------------------------------6-(6)-|
D-2-(2)-------------0-(0)---------------------|
A-2-(2)-------------0-(0)---------------------|
D-2-(2)-------------0-(0)---------------------|
                Heavy Distortion 


E---------------------------------------------------------|
B---------------------------------------------------------|
G---------------------------------------------------------|
D---------------------------------------------------------|
A-4-4--0-0--7-7-7-7--2-2-2-2-2--4-4--0-0--2-2-2-2-2-\7-6--|
D-4-4--0-0--7-7-7-7--2-2-2-2-2--4-4--0-0--2-2-2-2-2-\7-6--|
                      Heavy Distortion 
E-------------------------------------------------------------|
B-------------------------------------------------------------|
G-------------------------------------------------------------|
D-------------------------------------------------------------|
A-4-4-x-0-0-x-7-7-7-7--2-2-2-2-2--4-4-x-0-0-x-2-2-2-2-2-\7-6--|
D-4-4-x-0-0-x-7-7-7-7--2-2-2-2-2--4-4-x-0-0-x-2-2-2-2-2-\7-6--|
                      Heavy Distortion

Then the solo

E------------------------------------------|
B------------------------------------------|
G------------------------------------------|
D-6---7---9--6---7---9--6---7---9--6---7p--|
A----------------------------------------7-|
D------------------------------------------|
                Heavy Distortion 




E-----------------------------------|
B-----------------------------------|
G------4-6-----4-6-----4-6-----4-6--|
D------4-6-----4-6-----4-6-----4-6--|
A-----------------------------------|
D-0h4-----0h4-----0h4----0h4--------|

E---------------------------------------------------------|
B---------------------------------------------------------|
G---------------------------------------------------------| play 6 times
D---------------------------------------------------------|
A-4-4--0-0--7-7-7-7--2-2-2-2-2--4-4--0-0--2-2-2-2-2-\7-6--|
D-4-4--0-0--7-7-7-7--2-2-2-2-2--4-4--0-0--2-2-2-2-2-\7-6--|
                     Heavy Distortion
            

comments powered by Disqus
↑ Back to top | Three Days Grace Tabs for I Hate Everything About U. Lyrics for acoustic guitar and electric guitar. Tablatures and chords are parodies/interpretations of the original songs. You may use it for private study, scholarship, research or language learning purposes only