» » »

Underneath The Radar Tabs (ver.1)

Artists:  A B C D E F G H I J K L M N O P Q R S T U V W X Y Z # 

Underneath The Radar Tabs (ver.1)

Thornley
Rating:
2/5 (1 vote)

Tabs too difficult? Try these video lessons and learn fast.
                Thornley
Underneath the Radar

*sweet_inc*

drop D, 1/2 step down (D-A-D-G-B-e)

guitar with tremolo/delay
e|--------------------|
G|--------------------|
B|--------------------|
D|-7-7------7-7-------| x2
A|-5-5------5-5-------|
D|--------------------|

verse
guitar with tremolo (second guitar strums these chords)
e|------------------------------|
G|------------------------------|
B|------------------------------|
D|-7-7---------5-5--------------|
A|-5-5---5-5---3-3--7-7---------|
D|-------5-5--------7-7---------|

chorus
e|------------------------------------|
G|------------------------------------|
B|--7\--------------------------------|
D|----0-0-3-3-3-------5-5-6-6-7\------|
A|--5\0-0-1-1-1-3-3-3-3-3-4-4-5\------|
D|----0-0-------3-3-3-----------------|

e|-------------------------------------|
G|-------------------------------------|
B|--7\---------------------------------|
D|----0-0-3-3-3------------------------|
A|--5\0-0-1-1-1-1-3-1-0-3-3-3-7-7-7-7--|
D|----0-0---------------3-3-3-7-7-7-7--|

verse
chorus
verse(tremolo guitar only)

chorus out
            
Tabs too difficult? Try these video lessons and learn fast.




comments powered by Disqus
↑ Back to top | Tablatures and chords are parodies/interpretations of the original songs. You may use it for private study, scholarship, research or language learning purposes only