» » »

Third Try, I'm Outside Tabs (ver.2)

Artists:  A B C D E F G H I J K L M N O P Q R S T U V W X Y Z # 

I'm Outside Tabs (ver.2)

Third Try Tabs
 Rating:
4/5 (4 votes)
I'm Outside lessons Tabs too difficult? Try these video lessons and learn fast
                


Intro: all the bass notes are palm muted
Guitar 1
        C5                          A5                       F5
E|----------------------------------------------------------------------------|
B|----------------------------------------------------------------------------|
G|----------------------------------------------------------------------------|
D|-----5-------5-----5------5-------------------------------------------------|
A|--3-----3--3----3----3-3--------7------7-----7------7-----3------3---3-----3|
E|-----------------------------5----5--5----5-----5-5----1-----1-1---1---1-1--|
cont.
         G#5
E|----------------------------|
B|----------------------------|
G|----------------------------|
D|----------------------------|
A|----6--------6---6------6---|
E|--4----4--4----4---4--4-----|
Guitar 2: comes in after guitar one plays its part once
E|----------------------------------|
B|----------------------------------|
G|--5----------------10--------13---|
D|--5--------7-------10--------13---|
A|--3--------7--------8--------11---|
E|-----------5----------------------|

The next part goes like this:

E|--------------------------------------------------------------------------|
B|--------------------------------------------------------------------------|
G|-5-5-5-5-5-5-5-5-5-5-5-5-7-7-7-7------------------------------------------|
D|-5-5-5-5-5-5-5-5-5-5-5-5-7-7-7-7-7-7-7-7-7-7-7-7-7-7-7-7-7-7-7-7----------|
A|-3-3-3-3-3-3-3-3-3-3-3-3-5-5-5-5-7-7-7-7-7-7-7-7-7-7-7-7-7-7-7-7----------|
E|---------------------------------5-5-5-5-5-5-5-5-5-5-5-5-5-5-5-5----------|
cont.
E|-------------------------|
B|-------------------------|
G|10-------13-----12-------|
D|10-x 16--13-x 8-12-x 8---|
A|-8-------11-----10-------|
E|-------------------------|

Verse: this is played palm muted

E|---------------------------------------|
B|---------------------------------------|
G|-5-------------------------------------|
D|-5-x 16--7-------3-------6------5------|
A|-3-------7-x 16--3-x 16--6-x 8--5-x 8--|
E|---------5-------1-------4------3------|

Chorus: not palm muted

E|-----------------------------|--------------------------------------------|
B|-----------------------------|--------------------------------------------|
G|-5---------------------------|--5-----------------------------------------|
D|-5-x16--7------3------5------|--5-x16--7------3------5-----6--------------|
A|-3------7-x16--3-x16--5-x16--|--3------7-x16--3-x16--5-x8--6-x8-----------|
E|--------5------1------3------|---------5------1------3-----4--------------|
        first part                     play after first part

The next part goes like this:  play it palm muted

E|-------------------------------------|
B|-------------------------------------|
G|--5---5---5---5---2---2---2---2------|
D|----5---5---5---5---5---5---5---5----|
A|-------------------------------------|
E|-------------------------------------|

The ending of the song goes like this:

E|-----------------------------|
B|-----------------------------|
G|------------------------5----|
D|----5-----5---5-----5---5----|
A|--3---3-3---3---3-3-----3----|
E|-----------------------------|
   |------------------|
 palm mute the bass notes
            
Submit corrections

comments powered by Disqus
↑ Back to top | Third Try Tabs for I'm Outside. Lyrics for acoustic guitar and electric guitar. Tablatures and chords are parodies/interpretations of the original songs. You may use it for private study, scholarship, research or language learning purposes only