» » »

Pain In My Heart Tabs (ver.1)

Artists:  A B C D E F G H I J K L M N O P Q R S T U V W X Y Z # 

Pain In My Heart Tabs (ver.1)

The Zoo
Rating:
5/5 (3 votes)

Hard to play? Try these video lessons and learn fast.
                
--eto na ung buong tabs ng pain in my heart, xori kung mejo natagalan ung paglagay ko dito,
ang dami ko pa kasing ginawa eh bago dito,.. hindi ako masyado sure dito pero sa palagay
ko eh mejo tama naman.. 95% correctness... enjoy playing!!^^ --

Intro: (Guitar 2)
    A         D      E7sus   E
e|---------------------0-------0------------------|
B|--2----0-2--3--2---0---0---0--------------------|
G|--2--2------2---2--2----2--1--------------------|
D|--2-2-------0-----------------------------------|
A|--0---------------------------------------------|
E|-------------------0-------0--------------------|


Verse 1:

Guitar 1 - (chords at power chords lang dito, slightly strumming)

Guitar 2
     Aadd9  D          E             A          F#m              B
e|------0------------------4-------------------------------------2-------|
B|---2------2---3------5-------------0--2--------2-----4---5-----4-------|
G|---2------3----------4-------------2--2--------2-----4---------4-------|
D|---2------0------------------------------------4---------------4----4--|
A|---0-----------------4-------------0---------------------------2----2--|
E|-----------------------------------------------2-----------------------|
  Here i am alone     in this Empty Room      and let my mind just fly

             E7sus    E
e|-----------2--2-----0--0--|
B|-----------0--0-----0--0--|
G|-----------2----2---1-----|
D|--------------------------|
A|--------------------------|
E|-----------0--------0-----|
   me to the end


Verse 2
    Aadd9       D                 E             A
e|----------------------------------------------------------|
B|--2-----------3-------3---------5-------------2--2--------|
G|--2----2------2-------2---------4---2--4------2--2--------|
D|--2-----------0-------------------------------2-----------|
A|--0-------------------------------------------0-----------|
E|--------------------------------4-------------------------|
     Thoughts of you still      linger in my memory

     F#m              B                E7sus   E
e|---2----------------2------------------0-------0------|
B|---2-----2----4-----4----------------0---0---0--------|
G|---2-----2----------4------4---------2----2-1---------|
D|---4----------------4------4--------------------------|
A|------------------------------------------------------|
E|-------------------------------------0-------0--------|
    wondering why my life  is not that fair


Refrain:

     C#m             F#m
e|--1-----1----2-----2---4--5--------|
B|--2-----2----------2---2-----------|
G|--1----------------2---------------|   2X
D|--3----------------4---------------|
A|--4----------------4---------------|
E|-----------------------------------|
     I could still recall
     those memories of you

        B                 E           B                       E   D
e|------7-------7---------0---2---4---7----------7------------4---2---|
B|------7-----------------0-----------7----------7------------5---3---|
G|------8-----------------1-----------8-----------------------4---2---|
D|------------------------------------------------------------2---0---|
A|--------------------------------------------------------------------|
E|------7-----------------0-----------7-------------------------------|
    the joy and all your laughter  the love that we've been through

       A           D            E7sus    E
e|-----------5--4--2--2-----------0-------0------|
B|-----5-----5--5--3--3---------0---0---0---0----|
G|-----6-----6-----2------------2----2--1--------|
D|-----7-----------0-----------------------------|
A|-----------------------------------------------|
E|-----7------------------------0-------0--------|
oh. i can't believe      you're gone


Chorus:

          C#m       F#m            Bm                E
e|------------4-----4---2----------2-----------------0-----|
B|--------5---------2---2----------3---------3-------0--2--|
G|--------6---------2---2-2--------4---------4-------1--3--|
D|--------6---------4---4----------4-----4-----------------|
A|--------4---------4--------------2-----------------0-----|
E|---------------------------------------------------------|
   i don't want to remember    the things we used to do

          C#m            D            E7sus   E
e|----------------4------5------------0--0----0--0--|
B|--------5-------5------7-----7--6---0---0---0-----|
G|--------6-------6------7-----7--6---2-------1-----|
D|--------6---6----------7-7------------------------|
A|--------4--------------5--------------------------|
E|------------------------------------0-------0-----|
  all the things   that remind me of you

        A         G                       F#m / D         B / Dm
e|------------0-------------3-------------2--------2------1---1--|
B|------2-----2---3---------3-------------3--------3------3---3--|
G|------2---2-----4-----------------------2-----2---------2------|
D|------2-2-------5-----------------------0---------------0------|
A|------0-------------------4------------------------------------|
E|----------------3----------------------------------------------|
 i don't want to hear those songs   those songs we used to sing

              A                 E
e|--------------------0---------0---------|
B|------------2-------2---------0---0-----|
G|------------2-------2---------1---1-----|
D|------------2---------------------2-----|
A|------------0---------------------------|
E|------------------------------0---------|
'cause i don't wanna feel   the pain in

          A         D      E7sus   E
e|---------------0-----0-----0-------0--------|
B|--------2----0-2--3--2---0-0-----0-0--------|
G|--------2--2------2---2--2----2--1----------|
D|--------2-2-------0-------------------------|
A|--------0-----------------------------------|
E|-------------------------0-------0----------|
  ..my heart


Verse 3 and 4:
 (repeat verse 2)
 - pero ung last chords na E7sus at E eh iba - ganito yun..

e|--0--0---0----0--|
B|--0---0--0--0----|
G|--2------1-------|
D|-----------------|
A|-----------------|
E|--0------0-------|

(repeat refrain)
(repeat chorus) - ganito naman ung end nito..
e|-----0-------0---|
B|--2--2--2-2--2---|
G|--2--2----0------|
D|--2--------------|
A|--0--------------|
E|-----------------|

Adlib: (eto yung solo na mas nauna ko pang ginawa at ipinasa *added*)

Guitar 1:
solo:
   C#m      F#m    C#m     F#m               B      E
e|--9--10-9---------9-----9----------------9-7--9-7--------|
B|--9-------12-10v--9---9---12-10v---7-9-10--7------10-9v--|
G|--10------13-11v--10------13-11v-----------8------11-9v--|
D|--11--------------11-----------------------9-------------|
A|---------------------------------------------------------|
E|---------------------------------------------------------|
    B       E      A
e|--7----7-------------------5--5--9--10-|
B|--7--7---7-9v--7-----5-----------9--10-|
G|--8------8-9v--7-----6-----------9--11-|
D|---------------------7-----------------|
A|---------------------------------------|
E|---------------------------------------|
                I just can't believe

Guitar 2: strumming
   (isang bagsak lang kada chord)

    C#m  F#m  C#m  F#m  B  E  B  E  D    A         D
e|--9----9----9----9----7--7--7--7--5----5---------2--2--|
B|--9----10---9----10---7--9--7--9--7----5------5--3--3--|
G|--10---11---10---11---8--9--8--9--7----6------6--2--2--|
D|--11---11---11---11---9--9--9--9--7----7---------0-----|
A|--11---9----11---9----9--7--9--7--5----7---------------|
E|--9----9----9----9----7--7--7--7--5----5---------------|
                                   I just can't believe
Guitar 1:

         E7sus      E
e|------------------------------------|
B|-------10-10h12v-12s10-9-9s10-12v---|
G|-------11-11s12v-12p11-9-11---9v----|
D|------------------------------------|
A|------------------------------------|
E|------------------------------------|
 you're gone...

Guitar 2:

         E7sus E
e|-------0--0--0--0--|
B|-------0---0-0-----|
G|-------2-----1-----|
D|-------------------|
A|-------------------|
E|-------0-----0-----|
 you're gone...

Chorus 2:

Guitar 1: slightly strumming chords and power chords
           (ginagamit rin niya minsan ung guitar 2)
Guitar 2:

          C#m       F#m            Bm                E
e|------------4-----4---2----------2-----------------0-----|
B|--------5---------2---2----------3---------3-------0--2--|
G|--------6---------2-2-2----------4---------4-------1--3--|
D|--------6---------4---4----------4-----4-----------------|
A|--------4---------4--------------2-----------------0-----|
E|---------------------------------------------------------|
   i don't want to remember    the things we used to do

          C#m            D            E7sus   E
e|----------------4------5------------0--0----0--0--|
B|--------5-------5------7-----7--6---0---0---0-----|
G|--------6-------6------7-----7--6---2-------1-----|
D|--------6---6----------7-7------------------------|
A|--------4--------------5--------------------------|
E|------------------------------------0-------0-----|
  all the things   that remind me of you

*Guitar 1 - eto yung fill-in dito sa part na "that remind me of you"

e|----12-10--9h10p9--p7--p5-4v---|
B|----12-----10-------------5v---|
G|--------------------------4v---|
D|-------------------------------|
A|-------------------------------|
E|-------------------------------|
  of you....

Guitar 2:
        A         G                       F#m / D         B / Dm
e|------------0-------------3-------------2--------2------1---1--|
B|------2-----2---3---------3-------------3--------3------3---3--|
G|------2---2-----4-----------------------2-----2---------2------|
D|------2-2-------5-----------------------0---------------0------|
A|------0-------------------4------------------------------------|
E|----------------3----------------------------------------------|
 i don't want to hear those songs   those songs we used to sing

              A                 E
e|--------------------0---------0---------|
B|------------2-------2---------0---0-----|
G|------------2-------2---------1---1-----|
D|------------2---------------------2-----|
A|------------0---------------------------|
E|------------------------------0---------|
'cause i don't wanna feel   the pain in

          A         D      E7sus   E
e|------------------------|
B|--------2---2----2--2---|
G|--------2---2----2--2---|
D|--------2---2-2--2------|
A|--------0---------------|
E|------------------------|
  ..my heart

*Guitar 1 - fill-in naman ng "in my heart"

e|--5-4-5-7-9-10-12---|
B|--5---5--------12---|
G|--------------------|
D|--------------------|
A|--------------------|
E|--------------------|


Chorus 3:

Guitar 1: slightly strumming chords and power chords pa rin
           (ginagamit rin niya minsan ung guitar 2 pa rin)
Guitar 2:

          C#m       F#m            Bm                E
e|------------4-----4---2----------2-----------------0-----|
B|--------5---------2---2----------3---------3-------0--2--|
G|--------6---------2-2-2----------4---------4-------1--3--|
D|--------6---------4---4----------4-----4-----------------|
A|--------4---------4--------------2-----------------0-----|
E|---------------------------------------------------------|
   i don't want to remember    the things we used to do

          C#m            D            E7sus   E
e|----------------4------5------------0--0----0--0--|
B|--------5-------5------7-----7--6---0---0---0-----|
G|--------6-------6------7-----7--6---2-------1-----|
D|--------6---6----------7-7------------------------|
A|--------4--------------5--------------------------|
E|------------------------------------0-------0-----|
  all the things   that remind me of you

*Guitar 1 - fill-in "that remind me of you"

e|----12-10--9h10p9--p7--p5-4v---|
B|----12-----10-------------5v---|
G|--------------------------4v---|
D|-------------------------------|
A|-------------------------------|
E|-------------------------------|
  of you....

Guitar 2:
        A         G                       F#m / D         B / Dm
e|------------0-------------3-------------2--------2------1---1--|
B|------2-----2---3---------3-------------3--------3------3---3--|
G|------2---2-----4-----------------------2-----2---------2------|
D|------2-2-------5-----------------------0---------------0------|
A|------0-------------------4------------------------------------|
E|----------------3----------------------------------------------|
 i don't want to hear those songs   those songs we used to sing

*Guitar 1: fill-in 'i dont wan't to hear those songs'
                   'those songs we used to sing'

e|--------5--5----5--5----5----------------------------------10-9-7-5--|
B|--------5-------5---------------------------------------------9-9-5--|
G|---------------------------------------------------------------------|
D|---------------------------------------------------------------------|
A|---------------------------------------------------------------------|
E|---------------------------------------------------------------------|
 i don't want to hear those songs   those songs we used to sing

Guitar 2:
              A                 E
e|--------------------0---------0----0-----|
B|------------2-------2---------0----0-----|
G|------------2-------2---------1----1-----|
D|------------2----------------------------|
A|------------0----------------------------|
E|------------------------------0----------|
'cause i don't wanna feel   the pain in

Guitar 2:
    F#m        A          B
e|--4---2-----2-----2-----2-----2--2--|
B|--2---2-----2-----2-----4-----4--4--|
G|--2-2-2--2--2--2-----2--4----4---4--|
D|--4---4--------------------4--------|
A|------------------------2--------2--|
E|--2---------------------------------|
   my heart..          oohh,. ohh,.

*Guitar 1: fill-in

e|------------------------------------|
B|------7----s9----s10----12-------12-|
G|------------------------13-------13-|
D|------------------------------------|
A|------------------------------------|
E|------------------------------------|
   my heart..          oohh,. ohh,.

Guitar 2:
               A                          E
e|---------------------0-------------------------0----------0------|
B|-------------2-------2--2-----2---------0------0----------0------|
G|-------------2-----2----------2---------1------1------1---1------|
D|-------------2--2----------2------------2---2-----2---2----------|
A|-------------0---------------------------------------------------|
E|----------------------------------------0-------------0----------|
 cause i don't wanna feel yeah,.. i don't wanna feel the pain in..


Guitar 1:

e|------------------9-10------------------------12v----------------|
B|----------------------9v-------------------9-10------------------|
G|-----------------------------------------------------------------|
D|-----------------------------------------------------------------|
A|-----------------------------------------------------------------|
E|-----------------------------------------------------------------|
 cause i don't wanna feel yeah,.. i don't wanna feel the pain in..


Guitar 2:
    A        D     Dm     Esus E   A
e|----------------------0--0---0---0---|
B|--2----0-2-3-2----0---0--0---0---2---|
G|--2--2-----2--2s4-1---1--2---1---2---|
D|--2-2------0------2-2----2---2---2---|
A|--0----------------------2---2---0---|
E|------------------0------0---0-------|
 my heart.oohhh.... oh. .. .

Guitar 1:

e|----------10-9--5-7-7-----12--12-5--|
B|------0-2-12-10-5-7-----10---9---5--|
G|-----2------------------9----9---6--|
D|----2-------------------9----9---7--|
A|------------------------------------|
E|------------------------------------|
 my heart.oohhh.... oh. .. .

-the end-

-for comments or suggestions and corrections..
            
Hard to play? Try these video lessons and learn fast. | Correct




comments powered by Disqus
↑ Back to top | Tablatures and chords are parodies/interpretations of the original songs. You may use it for private study, scholarship, research or language learning purposes only