» » »

The Word Alive, Like Father Like Son Tabs (ver.1)

Artists:  A B C D E F G H I J K L M N O P Q R S T U V W X Y Z # 

Like Father Like Son Tabs (ver.1)

The Word Alive Tabs
Rating:
0/5 (0 votes)
Like Father Like Son lessons Tabs too difficult? Try these video lessons and learn fast
                -------------------------------------------------------------------------------
-------------------------------------------------------------------------------

I dont have all the tabs but this will sure help out.

Tuning: Drop C

e|-10-----10-13-10-------------------------------------------------------------|
B|-----------------11 10--------11-10-11----------------------10---------------|
G|---12---------------------7-9----------12-9-------9b-------------------------|
D|------------------------8----------------------------------------12----------|
A|----------------------------------------------12b-----12-10------------------|
E|-----------------------------------------------------------------------------|
First Ending
e|-----------10----------------------------------------------------------------|
B|-13--------------------------------------------------------------------------|
G|-----9---------12------------------------------------------------------------|
D|--------12-------------------------------------------------------------------|
A|-----------------------------------------------------------------------------|
E|-----------------------------------------------------------------------------|
Second Ending
e|-----------------------------------------------------------------------------|
B|-10--------10----------------------------------------------------------------|
G|-----------------------------------------------------------------------------|
D|-----12--------12------------------------------------------------------------|
A|--------12-------------------------------------------------------------------|
E|-----------------------------------------------------------------------------|
Break
e|-----------------------------------------------------------------------------|
B|-----------------------------------------------------------------------------|
G|-----------------------------------------------------------------------------|
D|------087---------087--------------------------------------------------------|
A|-----------------------------------------------------------------------------|
E|000---------000----------111-111---------------------------------------------|

These are played during the break. Just listen.
e|-13 12-------------------------------------------------13-12---------------------|
B|--------11-10-------13-11---------------------10-------------11-10-----1311------|
G|---------------10-9-----------------10-----------10----------------10-9----------|
D|---------------------------------------12------------12--------------------------|
A|------------------------------------------12-------------------------------------|
E|---------------------------------------------------------------------------------|


e|-----------------------------------------------------------------------------|
B|-----------------------------------------------------------------------------|
G|-----------------------------------------------------------------------------|
D|-----------------------------------------------------------------------------|
A|-000----888----555-555-------------------------------------------------------|
E|-000----888----555-555-------------------------------------------------------|

Chorus
e|---------------------------13-12-----------------------------13-12----------|
B|----------10-11-10-------13-----------------10-11---------13----------------|
G|-------------------10-9--------------------------9-10-9---------------------|
D|-----12-10--------------10--------10---12-10------------10------------------|
A|12-13--------------------------------13-------------------------------------|
E|----------------------------------------------------------------------------|

e|-17------------13-----------------12--------------------------------------|
B|---15---(x5)------15-----(x2)--------10---(x3)----------------------------|
G|------17-------------14-----------------12--------------------------------|
D|--------------------------------------------------------------------------|
A|--------------------------------------------------------------------------|
E|--------------------------------------------------------------------------|


************************************

| /   slide up
| \   slide down
| h   hammer-on
| p   pull-off
| ~   vibrato
| +   harmonic
| x   Mute note
| b   Bend
| pb  Pre-bend
| br  Bend release
| pbr Pre-bend release
| brb Bend release bend

************************************
            
Submit corrections

comments powered by Disqus
↑ Back to top | The Word Alive Tabs for Like Father Like Son. Lyrics for acoustic guitar and electric guitar. Tablatures and chords are parodies/interpretations of the original songs. You may use it for private study, scholarship, research or language learning purposes only