>
 >
Like Father Like Son

Like Father Like Son Bass Tabs

The Word Alive - Like Father Like Son chords, tabs, tablatures, lyrics

Guitar lessons | Add/correct | Request | Top 50 tabs Artists:  A B C D E F G H I J K L M N O P Q R S T U V W X Y Z 0-9

Like Father Like Son Bass Tabs – The Word Alive

CD, Sheet music, Poster

Do you like Like Father Like Son? Share with your friends now
Bass TabsTabs
-------------------------------------------------------------------------------
-------------------------------------------------------------------------------






Tuning: Drop C.





Intro [00:00]

F|-----------------------------------------------|
C|-----------------------------------------------|
G|-----------------------------------------------|   [x2]
C|--0--00-00--0--00000000-0--00-00--0-0--0000-0--|


[00:10]

F|----------------------------------------------|
C|----------------------------------------------|
G|----------------------------------------------|
C|--12(x16)--8(x12)-7-11--7(x16)--1(x8)--0(x8)--|

F|--------------------------------------------------------------------|
C|--------------------------------------------------------------------|
G|--------------------------------------------------------------------|
C|--12(x16)--8(x12)-7-11--7(x16)--1(x8)--0(x8)----0--000-000--0000-0--|



Verse [00:25]

F|-------------------------------------|
C|-------------------------------------|
G|-------13-12--------13-12-------3----|
C|--0-12---------0-12---------0-1---1--|

F|------------------------------|
C|------------------------------|
G|-------13-12------------------|
C|--0-12---------0-12---0(x16)--|

F|-------------------------------------|
C|-------------------------------------|
G|-------13-12--------13-12-------3----|   [x3]
C|--0-12---------0-12---------0-1---1--|

F|----------------------------------------------------|
C|----------------------------------------------12-8--|
G|-------13-12----------------12-8--11-7--12-8--------|
C|--0-12---------0-12---12-8--------------------------|



Breakdown [00:42]

F|----------------------------------------|
C-----------------------------------------|
G|----------------------------------------|   [x2] 
C|--000--000--000-000--000--000--000-000--|

F|--------------------|
C|--------------------|
G|--------------------|
C|--0-0-0--0000--0-0--|



Pre-chorus [01:07]

F|--------------------------------------------|
C|--------------------------------------------|
G|--------------------------------------------|
C|--000-000---000-000---000-000---00000000-0--|

F|------------------------------------------|
C|------------------------------------------|
G|------------------------------------------|
C|--000-000---000-000---000-000---00000000--|


 
Chorus [01:17]

F|---------------------------------------------------------------------|
C|---------------------------------------------------------------------|
G|---------------------------------------------------------------------|
C|--8(x16)--10(x16)--0-0--0000-0-0--0000-0--0000-0-0--0000-0-0--0-0-0--|

F|----------------------------------------------------------------------|
C|----------------------------------------------------------------------|
G|----------------------------------------------------------------------|
C|--8(x16)--10(x16)--0-0--0000-0-0--0000-0--0000-0-0--0000-0-0--0000-0--|

F|-----------------------------------------------------|
C|-----------------------------------------------------|
G|-----------------------------------------------------|
C|--0-0--0000-0-0--0000-0--0000-0-0--0000-0-0--0000-0--|



Bridge [01:41]

F|----------------------------------------------|
C|----------------------------------------------|
G|----------------------------------------------|   [x2]
C|--12(x16)--8(x12)-7-11--7(x16)--1(x8)--0(x8)--|



Verse [01:51]

F|-----------------------------------------------|
C|-----------------------------------------------|
G|-----------------------------------------------|   [x2]
C|--0--00-00--0--00000000-0--00-00--0-0--0000-0--|


[02:02]

F|--------------------------------------------------|
C|--------------------------------------------------|
G|--------------------------------------------------|  [x2]
C|--888-888---151515-12121212---888-888---888-5555--|
               "15"    "12"



Pre-chorus [02:11]

F|-------------------------|
C|-------------------------|
G|-------------------------|
C|--5(x8)--8(x8)--10(x16)--|


 
Chorus [02:22]

F|--------------------------------------------------------------------|
C|--------------------------------------------------------------------|
G|--------------------------------------------------------------------|
C|--8(x9)--10(x16)--0-0--0000-0-0--0000-0--0000-0-0--0000-0-0--0-0-0--|

F|----------------------------------------------------------------------|
C|----------------------------------------------------------------------|
G|----------------------------------------------------------------------|
C|--8(x16)--10(x16)--0-0--0000-0-0--0000-0--0000-0-0--0000-0-0--0000-0--|

F|-----------------------------------------------------|
C|-----------------------------------------------------|
G|-----------------------------------------------------|
C|--0-0--0000-0-0--0000-0--0000-0-0--0000-0-0--0000-0--|


F|----------------------------------------------|
C|----------------------------------------------|
G|----------------------------------------------|
C|--8~--10~--0~--12~----8~--10~--0~--12~----0~--|



Bridge [03:13]

F|------------------------------------------------------------|
C|------------------------------------------------------------|
G|-------------------12(x4)--10(x4)---------------------------|   [x2]
C|--12(x16)--11(x8)------------------10(x12)--12(x4)--9(x16)--|


[03:42]

F|------------------------------------|
C|------------------------------------|
G|------------------------------------|   [x2]
C|--8(x16)--10(x16)--0(x16)--12(x16)--|



Chorus [04:01]

F|----------------------------------------------------------------------|
C|----------------------------------------------------------------------|
G|----------------------------------------------------------------------|
C|--8(x16)--10(x16)--0-0--0000-0-0--0000-0--0000-0-0--0000-0-0--0000-0--|

F|----------------------------------------------------------------------|
C|----------------------------------------------------------------------|
G|----------------------------------------------------------------------|
C|--8(x16)--10(x16)--0-0--0000-0-0--0000-0--0000-0-0--0000-0-0--0000-0--|

F|-----------------------------------------------------|
C|-----------------------------------------------------|
G|-----------------------------------------------------|   [x3]
C|--0-0--0000-0-0--0000-0--0000-0-0--0000-0-0--0000-0--|

F|--------|
C|--------|
G|--------|
C|--0-0~--|





| /  slide up
| \  slide down
| h  hammer-on
| p  pull-off
| ~  vibrato
| +  harmonic
| x  Mute note
===============================================================================





Comments


Popular The Word Alive tabs & chords
2012 Tabs
Casanova Rodeo Tabs
Casanova Rodeo 1 Tabs
Casanova Rodeo 2 Tabs
Consider It MutualIntro Tabs
Epiphany 1 Tabs
Epiphany 2 Tabs
Life Cycles Tabs
The Devil Inside 1 Tabs
The Hounds Of Anubis 3 Tabs


Song lyrics



↑ Back to top | Tablatures and chords are parodies/interpretations of the original songs. You may use it for private study, scholarship, research or language learning purposes only
© 2014 AZChords.com Contact us | Privacy policy | DMCA | Add/correct tabs | Request tabs | Top 50 tabs