>
 >
Claudia

Claudia Guitar Tabs

The View - Claudia chords, tabs, tablatures, lyrics

Guitar lessons | Add/correct | Request | Top 50 tabs Artists:  A B C D E F G H I J K L M N O P Q R S T U V W X Y Z 0-9

Claudia Guitar Tabs – The View

CD, Sheet music, Poster

Do you like Claudia? Share with your friends now
ChordsChords v2TabsTabs v2Ukulele
The View Ė Claudia

fit the lyrics with the correct strum, but it may not be perfect. If you have a listen
the track, this will help to place them perfectly. Once you get the feel of it, it comes 

INTRODUCTION
      D      Db    C          G      Bm7     Bbm7    A7     D7
E|-----------------8----------3-------2-------1-------0------2--------|
B|----10-----9-----8----------3-------3-------2-------1------1--------|
G|----11-----10----9----------0-------2-------1-------0------2--------|
D|----0~~~~~~~~----0----------0-------4-------3-------2------0--------|
A|----------------------------2-------2-------1-------0------x--------|
E|----------------------------3-------x-------x-------x------x--------|

INTRO RIFF

E|-------------------------------------------------------------------------|
B|-------------------------------------------------------------------------|
G|---------11--12-14----12-11-9-11-9---9--------------------11~~11-10-9-11-|
D|9--10-12---------------------------12--12-10-12-10-9-10-9----------------|
A|-------------------------------------------------------------------------|
E|-------------------------------------------------------------------------|

VERSE
      I felt I was one with you,you probably didnít see.
   G          Bm7     Bbm7   Am7       G                  G    D/F#   Em
E|-3-----------2--------2-----0--------3------------------3-----3-----0----|
B--3-----------3--------3-----1--------3------------------3-----3-----0----|
G|-0-----------2--------2-----0--------0------------------0-----0-----0----|
D|-0-----------4--------4-----2--------0------------------0-----0-----2----|
A|-2-----------2--------2-----0--------2------------------2-----0-----2----|
E|-1-----------X--------X-----X--------1------------------1-----2-----0----|

      Oh Iím a nervous one, but the pain it comes easily.
   Em        D              C         B7              Change to Em
E|--0--------2--------------0----------2------------------0----------------|
B|--0--------3--------------1----------0------------------0----------------|
G|--0--------2--------------0----------2------------------0----------------|
D|--2--------0--------------2----------1------------------2----------------|
A|--2--------X--------------3----------2------------------2----------------|
E|--0-----------------------X----------X------------------0----------------|

BRIDGE

  Should I revolve my world around you?
   Em        D            Cadd9            change one note
E|--0--------2--------------3---------------3---3---3---3------------------|
B|--0--------3--------------3---------------3---3---3---3------------------|
G|--0--------2--------------0---------------0---0---0---0------------------|
D|--2--------0--------------0---------------0---0---0---0------------------|
A|--2--------X--------------3---------------3---2---3---2------------------|
E|--0-----------------------X---------------X---X---X---X------------------|

  Should I revolve my light around you?
      Em        D            Cadd9      G (up stroke)
E|-----0--------2--------------3--------3-----------------------|
B|-----0--------3--------------3--------3-----------------------|
G|-----0--------2--------------0--------0-----------------------|
D|-----2--------0--------------0--------0-----------------------|
A|-----2--------X--------------3--------2-----------------------|
E|-----0-----------------------X--------1-----------------------|

CHORUS

Claudia,Claudia,youíre taunting youíre teasing and you know I have feelings
   G      Bm7  Bm7    Bbm7 A7                       D7                Em
E|-3-------2----2------1----0------------------------2-----------------0---|
B|-3-------3----3------2----1------------------------1-----------------0---|
G|-0-------2----2------1----0------------------------2-----------------0---|
D|-0-------4----4------3----2------------------------0-----------------2---|
A|-2-------2----2------1----0------------------------x-----------------2---|
E|-3-------x----x------x----x------------------------x-----------------0---|

    Theyíre     all for you.
   Em     Bm7  Bm7    Bbm7  A7        D7
E|-0-------2----2------1----0----------2-----------------|
B|-0-------3----3------2----1----------1-----------------|
G|-0-------2----2------1----0----------2-----------------|
D|-2-------4----4------3----2----------0-----------------|
A|-2-------2----2------1----0----------x-----------------|
E|-0-------x----x------x----x----------x-----------------|

Claudia, Claudia,provoking my heart and I still havenít broken the code
   G    Bm7 Bm7      Bbm7  A7    D7                              Em
E|-3-------2----2------1----0-----------------------2-----------------0---|
B|-3-------3----3------2----1-----------------------1-----------------0---|
G|-0-------2----2------1----0-----------------------2-----------------0---|
D|-0-------4----4------3----2-----------------------0-----------------2---|
A|-2-------2----2------1----0-----------------------x-----------------2---|
E|-3-------x----x------x----x-----------------------x-----------------0---|

   To        your      heart    now                              oh no
   Em     Bm7  Bm7   Bbm7   A7        D7 riff starts here
E|-0-------2----2------1----0----------2------------------|
B|-0-------3----3------2----1----------1------------------|
G|-0-------2----2------1----0----------2------------------|
D|-2-------4----4------3----2----------0------------------|
A|-2-------2----2------1----0----------x------------------|
E|-0-------x----x------x----x----------x------------------|

MIDDLE 8 RIFF

E|----------------------------12-------------------------------------------|
B|-------------------------15----15--12--10----10---12---12---10-----------|
G|-------11--12-14---14^2-------------------12-------------------12---12---|
D|--9--10-12---------------------------------------------------------------|
A|-----------------------------------------------------------------14------|
E|-------------------------------------------------------------------------|

(This bit starts with something I canít figure out??? But the rest is correct)
E|---(???)---19ó19ó19--15----19--15---19--15------19--15----15---|
B|---(???)--------------17--------17-------17----------17--------|
G|---(???)-------------------------------------------------------|
D|---(???)-------------------------------------------------------|
A|---(???)-------------------------------------------------------|
E|---(???)-------------------------------------------------------|

BRIDGE

  I blame it on your upbringing    you were made around the side of a van
  G       Bm7    Bbm7   Am7                   G       D/F#     Em
E|-----3-----------2--------2-----0--------3--------------3-----3-----0----|
B|-----3-----------3--------3-----1--------3--------------3-----3-----0----|
G|-----0-----------2--------2-----0--------0--------------0-----0-----0----|
D|-----0-----------4--------4-----2--------0--------------0-----0-----2----|
A|-----2-----------2--------2-----0--------2--------------2-----0-----2----|
E|-----1-----------X--------X-----X--------1--------------1-----2-----0----|

You call me the trusting one, but trust it comes easy man
      Em        D              C         B7         Change to Em here
E|-----0--------2--------------0----------2-------------------------------|
B|-----0--------3--------------1----------0-------------------------------|
G|-----0--------2--------------0----------2-------------------------------|
D|-----2--------0--------------2----------1-------------------------------|
A|-----2--------X--------------3----------2-------------------------------|
E|-----0-----------------------X----------X-------------------------------|

CHORUS

Should I revolve my world around you?
             Em             D                        Cadd9
E|-----0--------2--------------3----------3---3---3---3-------------------|
B|-----0--------3--------------3----------3---3---3---3-------------------|
G|-----0--------2--------------0----------0---0---0---0-------------------|
D|-----2--------0--------------0----------0---0---0---0-------------------|
A|-----2--------X--------------3----------3---2---3---2-------------------|
E|-----0-----------------------X----------X---X---X---X-------------------|

Should I revolve my light around you?
      Em        D             Cadd9     G (up stroke)
E|-----0--------2--------------3--------3-----------------------|
B|-----0--------3--------------3--------3-----------------------|
G|-----0--------2--------------0--------0-----------------------|
D|-----2--------0--------------0--------0-----------------------|
A|-----2--------X--------------3--------2-----------------------|
E|-----0-----------------------X--------1-----------------------|

Claudia, Claudia youíre taunting youíre teasing and you know I have feelings
   G      Bm7  Bm7    Bbm7                         D7                Em
E|-3-------2----2------1----0-----------------------2-----------------0---|
B|-3-------3----3------2----1-----------------------1-----------------0---|
G|-0-------2----2------1----0-----------------------2-----------------0---|
D|-0-------4----4------3----2-----------------------0-----------------2---|
A|-2-------2----2------1----0-----------------------x-----------------2---|
E|-3-------x----x------x----x-----------------------x-----------------0---|

To your heart now to your heart now                whoa whoa whoaaaaaa
  Em   Bm7  Bm7   Bbm7   A7  Bm7 Bm7 Bbm7 A7       Bm7    Bm7   Bbm7  A7
E|-0----2----2------1----0----2---2--1----0--------2------2------1-----0---|
B|-0----3----3------2----1----3---3--2----1--------3------3------2-----1---|
G|-0----2----2------1----0----2---2--1----0--------2------2------1-----0---|
D|-2----4----4------3----2----4---4--3----2--------4------4------3-----1---|
A|-2----2----2------1----0----2---2--1----0--------2------2------1-----3---|
E|-0----X----X------X----X----X---X--X----X--------X------X------X-----X---|

Apologies for the spacing. I made it in word and pasted it in. It skrewed up the





Comments


Popular The View tabs & chords
Same Jeans Bass Tabs
5 Rebeccas Chords
Best Lasts Forever Chords
Claudia Chords
Don't Tell Me Chords
Jimmys Crazy Conspiricy 1 Chords
Realisation Intro Tabs
The Clock Intro Tabs
Up The Junction Intro 1 Tabs
I Need That Record Ukulele


Song lyrics



↑ Back to top | Tablatures and chords are parodies/interpretations of the original songs. You may use it for private study, scholarship, research or language learning purposes only
© 2014 AZChords.com Contact us | Privacy policy | DMCA | Add/correct tabs | Request tabs | Top 50 tabs