>
 >
5 Rebbeccas

5 Rebbeccas Guitar Tabs

The View - 5 Rebbeccas chords, tabs, tablatures, lyrics

Guitar lessons | Add/correct | Request | Top 50 tabs Artists:  A B C D E F G H I J K L M N O P Q R S T U V W X Y Z 0-9

5 Rebbeccas Guitar Tabs – The View

CD, Sheet music, Poster

Do you like 5 Rebbeccas? Share with your friends now
TabsTabs v2Tabs v3
The View

INTRO
     B
E---7-7------------------|
B---7-7------------------|
G---6-6------------------|  GUITAR 1. Kyle
D---9-9------------------|
A---9-9------------------|   X4
E---7-7------------------|
     B
E---7-7------------------|
B---7-7------------------|
G---6-6------------------|  Hold the B through out intro
D---9-9------------------|
A---9-9------------------|
E---7-7------------------|


E----------------------|
B----------------------|
G----------------------|        Guitar 2 Pete
D--2-2-4-4-5-5-7-7-----|
A----------------------|   X3
E----------------------|


E----------------------------|
B--7-------------------------|
G---9-7---7------------------|
D-------9--9-9(slide to 12---|th)
A----------------------------|
E----------------------------|

VERSE 1

B
i love the dress sense and the colour of your hair
E                                   Em       B
the way you say that people who are working, they are aiming to be posh my dear


B
people flocked around you by the smokeys in our school
E                                   Em            B
teachers they contained in all there anger as you regularly broke there rules
G#m
and everyone done the pill
Em
but solvent abuse it can kill

INTRO

VERSE 2

B
the first taste of heaven there was splattered on your screen
E                             Em                          B
floating with schemers and the part-time halloweeners and the lochee team
G#m
and everyone done the pill
Em
but solvent abuse can kill

CHORUS
B D#m     G#m                    Em
5 rebeccas all of them are close to me
B    D#m             G#m                     Em
one of thems a cook, and one of them does history,
B               D#m      G#m       Em
one of thems my neice and one lives close
Em
the one i love the most has turned into a junky

VERSE 3

B
so undersatisfied with minors at your age
E                                   Em                        B
and something so deceiving when you find yourself conceiving on a holy day
B
so unachievable with minors at your height
E                          Em                                   B
and something so decieving when you find yourself conceiving on a sunday night
G#m
everyone done the pill
Em
but solvent abuse can kill

CHORUS
B D#m     G#m                    Em
5 rebeccas all of them are close to me
B    D#m             G#m                     Em
one of thems a cook, and one of them does history,
B               D#m      G#m       Em
one of thems my neice and one lives close
Em
the one i love the most has turned into a junky


BRIDGE

G#m                      D#m
poor miss rebbecca youll be missed my girl
G#m                      D#m
wasn't for the treasure you would be rich my girl
C#m                      D#m
saved you from the terier and your so called friends
C#m                      D#m
took a back seater but they killed in the end though
G#m                      D#m
your sitting really cosy in your humble black cave
G#m                      D#m
it doesnt seem likely for a girl your age
C#m                      D#m
us cupid little kids can never look back
C#m                      D#m
when one of us is lying in a big brown bag

SOLO


     B
E---7-7------------------|
B---7-7------------------|
G---6-6------------------|  GUITAR 1. Kyle    (hold the B)
D---9-9------------------|
A---9-9------------------|
E---7-7------------------|

Part 1
E---------------------------|
B---------------------------| GUITAR 2 Pete
G---------------------------|
D-6(slide to 9)-11---9-11-9-|b
A-----------------11--------|
E---------------------------|
Part 2
E-----------------------------------------|
B-----------------------------------------|
G-----------------------------------------|
D-6(slide to 9)-11---9-11(Slide to 13)-11-|
A-----------------11----------------------|
E-----------------------------------------|
Part 3
E--------------------------|
B--------------------------|
G-11b-7b-6-7-6-7b----------|  X2
D--------------------------|
A--------------------------|
E--------------------------|
part 4
E--------------------------|
B--------------------------|
G-16b-15b--13--11-13-11b---|
D--------------------------|
A--------------------------|
E--------------------------|

END SOLO

B D#m G#m     Pete Play over oh oh oh's   G -16-18-19------
oh oh oh
B D#m G#m
oh oh oh

CHORUS (pete play PART 3 of the solo throughout)
B D#m     G#m                    Em
5 rebeccas all of them are close to me
B    D#m             G#m                     Em
one of thems a cook, and one of them does history,
B               D#m      G#m       Em
one of thems my neice and one lives close
Em
the one i love the most has turned into a junky

CHORUS (pete play PART 4 throughout)
B D#m     G#m                    Em
5 rebeccas all of them are close to me
B    D#m             G#m                     Em
one of thems a cook, and one of them does history,
B               D#m      G#m       Em
one of thems my neice and one lives close
Em
the one i love the most has turned into a junky

ENDING

B
I love the dress sense and the colour of your hair
E                                   Em                      B
the way you say that people who are working i can tell you: thats a touch my dear

Written by Kieran Murray
All rights to the view
And they are indeed on fire





Comments


Popular The View tabs & chords
Covers Chords
Gem Of A Bird Chords
Give Back The Sun Chords
Gran's For Tea Chords
Life Is Not Easy Chords
Skag Trendy 1 Chords
Tragic Magic Chords
Wasted Little Djs Chords
Fireworks Flowers Tabs
Dont Tell Me Ukulele


Song lyrics



↑ Back to top | Tablatures and chords are parodies/interpretations of the original songs. You may use it for private study, scholarship, research or language learning purposes only
© 2014 AZChords.com Contact us | Privacy policy | DMCA | Add/correct tabs | Request tabs | Top 50 tabs