» » »

The Summer Set, Someone Like You Chords (ver.3)

Artists:  A B C D E F G H I J K L M N O P Q R S T U V W X Y Z # 

Someone Like You Chords (ver.3)

The Summer Set Tabs
 Rating:
4/5 (5 votes)
Someone Like You lessons Tabs too difficult? Try these video lessons and learn fast
                /=slide

x=don't play

Standard:EADGBe

Intro/Verse
e|-x-----3-----5------1--------x-------------------------|
B|-5-----3-----5------1-------10-------------------------|
G|-5-----4-----5------2---or--10-------------------------|
D|-5-----5-----7------3-------10-------------------------|
A|-3-----5-----7------3-------8--------------------------|
E|-x-----3-----5------1-------x--------------------------|
   C     G     Am     F       F

Pre Chorus
e|-x------7-------5--------------------------------------|
B|-9------8-------5--------------------------------------|
G|-9--or--9-------6--------------------------------------|
D|-9------9-------7--------------------------------------|
A|-7------7-------7--------------------------------------|
E|-x------x-------5--------------------------------------|
   E      Em      A 

Chorus
e|-x-----3-----5------1--------x------/-3----------------|
B|-5-----3-----5------1-------10-----/--3----------------|
G|-5-----4-----5------2---or--10----/---4----------------|
D|-5-----5-----7------3-------10---/----5----------------|
A|-3-----5-----7------3-------8---/-----5----------------|
E|-x-----3-----5------1-------x--/------3----------------|
   C     G     Am     F       F         G


You got a price tag hanging on the back of your dress,
You got your shoes undone and your hair is a mess,
But no one sees you like I do

You roll the windows down when it's starting to rain, yeah,
Everybody else might think you're insane,
But no one sees you like I do

Cause the little things don't mean much to me
My girl, I'd cross the whole world for someone like you
Oh oh, no matter where I go, oh oh,
My unpredictable girl, you're impossible girl,
You know that it's true, oh oh, no matter what you do
I'd cross the world for someone like you
Someone like you; a girl like you
Someone like you

You love the sing along when you don't know the words,
You lock your keys in your car right next to your purse, yeah,
No one sees you like I do

You only show up right out of the blue,
Then 20 minutes late, 5's early for you, yeah,
No one sees you like I do

Cause the little things don't mean much to me
My girl, I'd cross the whole world for someone like you
Oh oh, no matter where I go, oh oh,
My unpredictable girl, you're impossible girl,
You know that it's true, oh oh, no matter what you do,
I'd cross the world for someone like you

Yeah, you're perfectly imperfect, my love
Oh, I'll be waiting up all night because your little things, all the stupid things,
Oh, the little things, don't mean much to me
My girl, I'd cross the whole world, for someone like you
Oh oh, no matter where I go, oh oh, 
My unpredictable girl, I'd cross the whole world for someone like you
Oh oh, no matter where I go, oh oh,
My unpredictable girl, impossible girl,
You know that it's true, oh oh, no matter what you do,
I'd cross the world for someone like you
Someone like you; a girl like you
Someone like you
I'd cross the whole world
A girl like you
Someone like you 
            
Submit corrections

comments powered by Disqus
↑ Back to top | The Summer Set Chords for Someone Like You. Lyrics for acoustic guitar and electric guitar. Tablatures and chords are parodies/interpretations of the original songs. You may use it for private study, scholarship, research or language learning purposes only